Oops, an error
Loading. Please wait.

Mothers Of Men Tab

version 2
version 2

Whole song

Interactive

1,520 views 12 this week
1 commentread comment
1 2 3 4 5
please rate
add to favorites
launch autoscroll
font size
0
reset
how to read this tab
guitar tuner
Autoscroll
slow
fast
+/-
esc
set tempo
stop
Help us to improve Ultimate-Guitar.com Take our survey!
×
Author
Difficulty
maatin 104
intermediate
-------------------------------------------------------------------------------
                             Mothers of Men - Band Name
-------------------------------------------------------------------------------
Tabbed by: Martin

Tuning: Standard EADGBe

Intro x2
e|---------------------------------------------------------------------------|
B|---------------------------------------------------------------------------|
G|---------------------------------------------------------------------------|
D|-------3---2-----5------3--2---3p2------3--2-----5-------------------------|
A|-----3---5--3-3-3-----3--5---35---5---3--5--3-3-3--------------------------|
E|----5-5---5--5-3-----5-5--5-5-------55-5--5--5-3---------------------------|
      
e|---------------------------------------------------------------------------|
B|---------------------------------------------------------------------------|
G|---------------------------------------------------------------------------|
D|------353-3s7---32---353-3/7--32~------------------------------------------|
A|-----3---5---5------3---5---5----------------------------------------------|
E|----5---------5---55---------5---------------------------------------------|
                                    (pinch harmonic with vibrato)

Chrous
e|---------------------------------------------------------------------------|
B|---------------------------------------------------------------------------|
G|---------------------------------------------------------------------------|
D|----777-7777-----------10101010-1010---3333-3333---------------------------|
A|----777-7777----3------10101010-1010---3333-3333---------------------------|
E|----555-5555-035-530---8-8-8-8--8-8--0-1111-1111---------------------------|x2
        

e|---------------------------------------------------------------------------|
B|---------------------------------------------------------------------------|
G|---------------------------------------------------------------------------|
D|----7---9---10---12---10---5---3-------------------------------------------|
A|----7x4-9x4-10x4-12x4-10x8-5x8-3x16--3---3-353---32~-----------------------|
E|----5---7---8----10---8----3---1------505-5---505--------------------------|


e|---------------------------------------------------------------------------|
B|---------------------------------------------------------------------------|
G|---------------------------------------------------------------------------|
D|-------3---2-----5------3--2-----------------------------------------------|
A|-----3---5--3-3-3-----3--5-------------------------------------------------|
E|----5-5---5--5-3-----5-5--5------------------------------------------------|

Verse
e|---------------------------------------------------------------------------|
B|---------------------------------------------------------------------------|
G|---------------------------------------------------------------------------|
D|-------3---2-----5------3--2---3p2------3--2-----5-------------------------|
A|-----3---5--3-3-3-----3--5---35---5---3--5--3-3-3--------------------------|
E|----5-5---5--5-3-----5-5--5-5-------55-5--5--5-3---------------------------|

e|---------------------------------------------------------------------------|
B|---------------------------------------------------------------------------|
G|---------------------------------------------------------------------------|
D|------353-3s7---32---353-3/7--32~------------------------------------------|
A|-----3---5---5------3---5---5----------------------------------------------|
E|----5---------5---55---------5---------------------------------------------|

Chorus
e|---------------------------------------------------------------------------|
B|---------------------------------------------------------------------------|
G|---------------------------------------------------------------------------|
D|----777-7777-----------10101010-1010---3333-3333---------------------------|
A|----777-7777----3------10101010-1010---3333-3333---------------------------|
E|----555-5555-035-530---8-8-8-8--8-8--0-1111-1111---------------------------|x2
        

e|---------------------------------------------------------------------------|
B|---------------------------------------------------------------------------|
G|---------------------------------------------------------------------------|
D|----7---9---10---12---10---5---3-------------------------------------------|
A|----7x4-9x4-10x4-12x4-10x8-5x8-3x16--3---3-353---32~-----------------------|
E|----5---7---8----10---8----3---1------505-5---505--------------------------|

Bridge
e|---------------------------------------------------------------------------|
B|---------------------------------------------------------------------------|
G|---------------------------------------------------------------------------|
D|-------9-----9----9------12-----5----5-------------------------------------|
A|------7-----7----7-----10------3----3--------------------------------------|
E|---555---555---55---888-----111---11---------------------------------------|x2

e|---------------------------------------------------------------------------|
B|---------------------------------------------------------------------------|
G|---------5-------------5--------5------------------------------------------|
D|----7----5x8--3---7----5x3--3---5x3-5--------------------------------------|
A|----7x16-3----3x8-7x16-3----3x3-3---5--------------------------------------|
E|----5---------1---5---------1-------3--------------------------------------|

e|---------------------------------------------------------------------------|
B|---------------------------------------------------------------------------|
G|---------5------------5-------5--------------------------------------------|
D|----7----5x8-5---3----5x3-3---5x3-5----------------------------------------|
A|----7x16-3---5x8-3x16-3---3x3-3---5x3--------------------------------------|
E|----5--------3---1--------1-------3----------------------------------------|

e|---------------------------------------------------------------------------|
B|---------------------------------------------------------------------------|
G|-------5-----4b5b4-----5-4b5--4b5-4b5br4-----------------------------------|
D|----777---555-------555-5----5---5-----------------------------------------|
A|---------------------------------------------------------------------------|
E|---------------------------------------------------------------------------|

Chorus
e|---------------------------------------------------------------------------|
B|---------------------------------------------------------------------------|
G|---------------------------------------------------------------------------|
D|----777-7777-----------10101010-1010---3333-3333---------------------------|
A|----777-7777----3------10101010-1010---3333-3333---------------------------|
E|----555-5555-035-530---8-8-8-8--8-8--0-1111-1111---------------------------|x2
         

e|---------------------------------------------------------------------------|
B|---------------------------------------------------------------------------|
G|---------------------------------------------------------------------------|
D|----7---9---10---12---10---5---3-------------------------------------------|
A|----7x4-9x4-10x4-12x4-10x8-5x8-3x16--3---3-353---32------------------------|
E|----5---7---8----10---8----3---1------505-5---505--------------------------|

e|---------------------------------------------------------------------------|
B|---------------------------------------------------------------------------|
G|---------------------------------------------------------------------------|
D|----777-7777-----------10101010-1010---3333-3333---------------------------|
A|----777-7777----3------10101010-1010---3333-3333---------------------------|
E|----555-5555-035-530---8-8-8-8--8-8--0-1111-1111---------------------------|x2
         

e|---------------------------------------------------------------------------|
B|---------------------------------------------------------------------------|
G|---------------------------------------------------------------------------|
D|----7---9---10---12---10---5---3-------------------------------------------|
A|----7x4-9x4-10x4-12x4-10x8-5x8-3x16--3---3-353---32~-----------------------|
E|----5---7---8----10---8----3---1------505-5---505--------------------------|



************************************

| /   slide up
| \   slide down
| h   hammer-on
| p   pull-off
| ~   vibrato
| +   harmonic
| x   Mute note
| b   Bend
| pb  Pre-bend
| br  Bend release
| pbr Pre-bend release
| brb Bend release bend

************************************
Suggest correction new What's this?
You can suggest a correction to this tab. Community and Mods will review your correction and vote to approve or reject it.
comments
We did not receive enough feedback on this tab! Please rate:
print report bad tab
1 2 3 4 5
1 comment total.
0 reply
maatin 104 wrote on January 3 2013, 10:25 pm

Believe it or not but ver1 showed up after i uploaded this one. This was my first attempt at tabbing a song and i completely admit my failure.

guest
You may want to rate the tab now too:
select rating
Please do not post tabs as comments. Select "correction" instead!