Oops, an error
Loading. Please wait.

Neverender Bass Tab

version 1
version 1

Whole song

Interactive

3,092 views 18 this week
no commentswrite comment
1 2 3 4 5
accurate
x 3
add to favorites
launch autoscroll
font size
0
reset
guitar tuner
Autoscroll
slow
fast
+/-
esc
set tempo
stop
Help us to improve Ultimate-Guitar.com Take our survey!
×
first line:
G:--------------------------------|
D:-6-7-6---6---4-4---------4-6-6-6|
A:-------4---4-----4-7-6-4--------|
E:--------------------------------|

next line, play twice
G:-------------------------------------------------------------|
D:-------------------------------------------------------------|
A:---0--4-4-0-0--0-0--------------0--4-4-----0-0--------------0|
E:-4------------------2-4-4-4-4-4--------2-2------2-4-4-4-4-4--|
rest a bit for guitar, then play some random sliding, not really important which notes, 
just a fill to transition to the next part.

play twice
lets call this the preverse riff
G:-------------------------------------------------------------|
D:--------6----------------------------------------------------|
A:4-4-4-4---4-6-7---------7---7-----------------------------0-2|
E:------------------5-5-5---5---5--2-2--2-2--2-4--4-4-4-4-4----|

this next line is liberally sprinkled with 5ths. i've not written them in
because where plays them changes, so just play 5ths whenever it feels
sounds right -- if you dont what a 5th is, its a musical term meaning an
interval of 7 half steps, or 5 scale degrees. if you dont know what THAT
means, its not really important. to play a fifth, play one 
and two frets up, so if you're playing 4 on the "a" string, the fifth of
that is 6 on the "d" string. pretty simple, just pepper this next line
with such notes
Lets call this the main verse riff. play it 4 times
G:------------------------------------------------------------------------------------------------------------------------------------|
D:---------------------------------------------------------------------------------------------------------------------------2-2-2-2--|
A:-4-4-4-4-4-4-4-4-4-4-4-4-4-4-6-7-------------------------------------------------------------------2-2-2-2-2-2-2-2-4-4-4-4----------|
E:---------------------------------5-5-5-5-5-5-5-5-5-5-4-4-2-2-4-4-5-5-5-5-5-5-5-5-5-5-5-5-5-2-2-4-4----------------------------------|

lets call this the first chorus riff. play it twice. second time thru play the notes in 
 (yes, i know, they're 5ths again and i just could've said that, but these notes are 
more imporatant than the earlier 5ths so i'd prefer to emphasize them by writing them in)
also, DONT play the notes with asterisks, just ride on the open a
G:---(4)--------------(4)-------------------------------------|
D:-2--2-----------(2)---------2-------2-----------------------|
A:-----------(4)-----------0-------4--------*2--*2-*4-0-----0-|
E:------------------------------------------------------------|

a little bit of the Preverse riff, take out some parts to mesh with the guitar, i'm sure 
can figure it out
main verse riff, four times
first chorus riff twice, as before, then follow with second chorus riff,
G:---------------------------------------------------------------|
D:---------------------------------------------------------------|
A:4-4-4-4-4-4-4-4-----------------0-0-0-0-0-0-0-0-0-0-0-0-0-0-0-0|
E:----------------0-0-0-0-0-0-0-0--------------------------------|
Suggest correction
Give kudos to tab author, rate the tab!
1 2 3 4 5
comments
print report bad tab
guest
You may want to rate the tab now too:
select rating
Please do not post tabs as comments. Select "correction" instead!