Oops, an error
Loading. Please wait.

Neverender Tab

version 1
version 1

Whole song

Interactive

26,101 views 12 this week
8 commentsread comments
1 2 3 4 5
x 18
add to favorites
launch autoscroll
font size
0
reset
how to read this tab
guitar tuner
Autoscroll
slow
fast
+/-
esc
set tempo
stop
Author
[Intro] 
(pt. 1)
e|----------------------------|
B|----------------------------|
G|----------------------------|
D|-6-6--6-6--4-4--2-2---------|
A|-4-4--0-0--0-0--0-0-4/6-6-6-|
E|--------------------2/4-4-4-|
                      .   . .

(pt. 1 lead)
e|----------4-4--7-7--4-5-4-0-|
B|-4-5-4-5--------------------|
G|----------------------------|
D|----------------------------|
A|----------------------------|
E|----------------------------|

(pt. 2)
e|------------------------------------------------4-5-4-0-|
B|--------------------------------------------------------|
G|--------------------------------------------------------|
D|-6-6--6-6--8-9------------------------------------------|
A|-4-4--4-4--6-7--7-7--7-7--7-4-4--4-4--4-6--6-6----------|
E|----------------5-5--5-5--5-2-2--2-2--2-4--4-4----------|
                              . .  . .  . .  . .

[Verse]
e|-------------------------------------------------------------------------------|
B|-------------------------------------------------------------------------------|
G|---------------------------------------------------------------------------8-9-|
D|-666666666666666666666666666666664444444444444444----------------9-9--9-9------|
A|-444444444444444400000000000000000000000000000000-7-7--6-6--6-7--7-7--6-6------|
E|--------------------------------------------------5-5--5-5--5-5----------------|
   ................................................

[Verse lead]
e|---------------------------------------------------|
B|---4-----4-----5-----5-------5-----5-5---------4-5-|
G|-----4-----4-----4-----4-4-6---4-6-----6-4-6-4-----|
D|---------------------------------------------------|
A|-4-----4-----0-----0-------------------------------|
E|---------------------------------------------------|

[Chorus] 
(use one ending, then the other)
e|-12----------------------------------------|-------|-12-|
B|-9---12-10-9-10-9--------------9----9-10-9-|-------|-12-|
G|-9---9--9--9-9--9-9---9h11-9-----11--------|-11-9--|-9--|
D|------------------11--11---11--------------|----11-|----|
A|-------------------------------------------|-------|----|
E|-------------------------------------------|-------|----|

[Bridge 1]
e|----------------------------------|
B|----------------------------------|
G|-6666666666666666-----------------|
D|-66666666666666667777777777777777-|
A|-44444444000000007777777777777777-|
E|-----------------5555555555555555-|
                   ................

[Bridge 2]
e|----------------------------------|
B|----------------------------------|
G|-6-6-666-9999999------------------|
D|-6-6-666-9999999-7777777777777777-|
A|-4-4-444-7777777-7777777777777777-|
E|-----------------5555555555555555-|
       ..  ......  ................

[Bridge lead]
e|--------11-12---------12-11---------------------------------------------|
B|-9h10p9--------9h12p9-------14-14-14-14-12-12-12-12-10-10-10-10---------|
G|----------------------------x--x--x--x--x--x--x--x--x--x--x--x--9-9-9-9-|
D|----------------------------11-11-11-11-9--9--9--9--7--7--7--7--x-x-x-x-|
A|----------------------------------------------------------------7-7-7-7-|
E|------------------------------------------------------------------------|


************************************

| /  Slide up
| .  Staccato
| h  Hammer-on
| p  Pull-off
| x  Dead note

************************************
Suggest correction
comments
print report bad tab
8 comments total. Showing first comments.
0 reply
The Ace 10 Mar 15, 2005 07:00 PM

Awesome tab, had a lot of fun learning this one.

0 reply
jonathanr 273 Dec 04, 2005 06:46 AM

the intro changes dude...the Amajor power chord is dropped after the first time playing it

0 reply
$hab 687 Jan 20, 2006 05:38 AM

Really good tab man, I think the third octave in the Bridge lead is:

e|----------------|
B|--9--9--9--9----|
G|--x--x--x--x----|
D|--6--6--6--6----|
A|----------------|
E|----------------|


And not:

e|----------------|
B|--10-10-10-10---|
G|--x--x--x--x----|
D|--7--7--7--7----|
A|----------------|
E|----------------|


Besides that, it's pretty much perfect.

guest
You may want to rate the tab now too:
select rating
Wanna post a correction for this tab? Suggest correction