Oops, an error
Loading. Please wait.

Neverender Bass Tab

version 2
version 2

Whole song

Interactive

2,378 views 1 this week
1 commentread comment
1 2 3 4 5
x 4
add to favorites
launch autoscroll
font size
0
reset
guitar tuner
Autoscroll
slow
fast
+/-
esc
set tempo
stop
Help us to improve Ultimate-Guitar.com Take our survey!
×
Author
Gtr I (E A D G) - 'elec.'

 Intro
  Fast Rock Q=80
 4/4
  Gtr I
  H..       S  S    S  S  S S  S S S S S  S  S S S  S  S  S
|----------------|------------------------------------------|
|----------------|------------------------------------------|
|-------------11-|-11-12-11---11---9-9-----------9-11-11-11-|
|----------------|----------9----9-----9-12-11-9------------|


    S S S S S S S S S S S S S S S S   S S S S S S S S S S S S S S S S
||----------------------------------|----------------------------------||
||o---------------------------------|---------------------------------o||
||o---------------------------------|---------------------------------o||
||--4-5---9-9---5-5---5-5---2-4-4-4-|-4-5---9-9---2-2---5-5---2-4-4-4--||


  S S H.      S T T   S S S S S S S S S S S S  E    E
|-------------------|-----------------------------------|
|-------------------|-----------------------------------|
|-4-----------------|------------------------------12\--|
|---4-----------2-2-|-2-2---2-2---2-4---4-4---12\-------|


    S S S S  S S  S  S S S S S S S S S   S S S S S S S S S S S S S S S S
||-------------------------------------|----------------------------------||
||o------------------------------------|---------------------------------o||
||o---------11-----------------7-------|---------------------4-----------o||
||--9-9-9-9----9-11-12-5-5-5-5---5-5-5-|-2-2-2-2-2-2-2-4-4-4-----4-4-5-7--||


 Verse
  S S S S  S S S S S S S S S S  S  S   S S S S S S S S S S S S S S S S
|------------------------------------|----------------------------------|
|------------------------------------|----------------------------------|
|---------11-------------------------|---------7------------------------|
|-9-9-9-9----9-9-9-9-9-9-9-9-9-11-12-|-5-5-5-5---5-5-5-5-5-4-4-2-2-4-4--|


  S S S S S S S S S S S S S S S S   S S S S S S S S S S S S  S  S  S  S
|---------------------------------|--------------------------------------|
|---------------------------------|--------------------------------------|
|---------------------------------|--------------------------------------|
|-5-5-5-5-5-5-5-5-5-5-5-5-2-2-4-4-|-7-7-7-7-7-7-7-7-9-9-9-9-12-12-12-12--|


    S S S S  S S S S S S S S  S S  S  S   S S S S S S S S S S S S S S S S
||--------------------------------------|---------------------------------|
||o-------------------------------------|---------------------------------|
||o---------11---------------11---------|---------7-----------------------|
||--9-9-9-9----9-9-9-9-9-9-9----9-11-12-|-5-5-5-5---5-5-5-5-5-4-4-2-2-4-4-|


  S S S S S S S S S S S S S S S S   S S S S S S S S S S S  S  S  S  S  S   3x
|---------------------------------|----------------------------------------||
|---------------------------------|---------------------------------------o||
|---------------------------------|-----------------------11--------------o||
|-5-5-5-5-5-5-5-5-5-5-5-5-2-2-4-4-|-7-7-7-7-7-7-7-7-9-9-9----12-12-12-12---||


 Chorus 1
  W          Q  H.
|----------|----------|
|----------|----------|
|-7--------|----7-----|
|----------|-5--------|


  H.       Q    Q.    S S H
|-------------|----------------|
|-------------|----------------|
|-------------|-2----h2-4p0----|
|-9-------12--|----------------|


  Q  H.        E E H.
|------------|-----------|
|----9-------|-----9-----|
|-7----------|---7-------|
|------------|-9---------|


  H.       Q    H    S S S S S S S S
|-------------|----------------------||
|-------------|----------------------||
|-------------|-2----0-0-0-0-0-0-0-0-||
|-9-------12--|----------------------||


 Interlude
  Q.    S  S S S S S S S S T T   S S S S S S S S S S  S  S S S S S
|------------------------------|------------------------------------|
|------------------------------|------------------------------------|
|--------------------7---------|----------------------4-------------|
|------11-12---5-5-----5---2-2-|-2-2---2-2---2-4---4-(4)---4-4-5-7--|


   Verse 2
    S S S S S S S S S S S S S S  S  S   S S S S S S S S S S S S S S S S
||------------------------------------|---------------------------------|
||o-----------------------------------|---------------------------------|
||o-----------------------------------|---------------------------------|
||--9-9-9-9-9-9-9-9-9-9-9-9-9-9-11-12-|-5-5-5-5-5-5-5-5-5-5-4-4-2-2-4-4-|


  S S S S S S S S S S S S S S S S   S S S S S S S S S S S  S  S  S  S  S
|---------------------------------|----------------------------------------||
|---------------------------------|---------------------------------------o||
|---------------------------------|-----------------------11--------------o||
|-5-5-5-5-5-5-5-5-5-5-5-5-2-2-4-4-|-7-7-7-7-7-7-7-7-9-9-9----12-12-12-12---||


    S S S S  S S S S S S  S S S S  S  S   S S S S S S S S S S S S S S S S
||--------------------------------------|---------------------------------|
||o-------------------------------------|---------------------------------|
||o---------11-----------11-------------|---------7-----------------------|
||--9-9-9-9----9-9-9-9-9----9-9-9-11-12-|-5-5-5-5---5-5-5-5-5-4-4-2-2-4-4-|


  S S S S S S S S S S S S S S S S   S S S S S S S S S S S  S  S  S  S  S
|---------------------------------|----------------------------------------||
|---------------------------------|---------------------------------------o||
|---------------------------------|-----------------------11--------------o||
|-5-5-5-5-5-5-5-5-5-5-5-5-2-2-4-4-|-7-7-7-7-7-7-7-7-9-9-9----12-12-12-12---||


 Chorus 2
  W          W
|----------|------|
|----------|------|
|-7--------|------|
|----------|-5----|


  H.       Q    Q.    S S Q  E S S
|-------------|--------------------|
|-------------|--------------------|
|-------------|-2----h2-4p0----0-0-|
|-9-------12--|--------------------|


  Q  H.        E E H.
|------------|-----------|
|----9-------|-----9-----|
|-7----------|---7-------|
|------------|-9---------|


  H.       Q    S S S S S S S S S S S S S S S S
|-------------|---------------------------------||
|-------------|---------------------------------||
|-------------|-0-0-0-0-0-0-0-0-0-0-0-0-0-0-0-0-||
|-9-------12--|---------------------------------||


   Breakdown
     S  S  S  S  S  S  S  S S S S S S S S S
||------------------------------------------|
||o-----------------------------------------|
||o-----------------------------------------|
||--16-16-16-16-16-16-16-16-0-0-0-0-0-0-0-0-|


  S S S S S S S S S S S S S S S S
|----------------------------------||
|---------------------------------o||
|---------------------------------o||
|-5-5-5-5-5-5-5-5-5-5-5-5-5-5-5-5--||


   E  E  S  S  S  S  S  S  S  S  S  S  S  S   S S S S S S S S S S S S S S S S
|-------------------------------------------|----------------------------------|
|-------------------------------------------|----------------------------------|
|-------------------------------------------|----------------------------------|
|-16-16-16-16-16-16-19-19-19-19-19-19-19-19-|-5-5-5-5-5-5-5-5-5-5-5-5-5-5-5-5--|


   S  S  S  S  S  S  S  S S S S S S S S S   S S S S S S S S S S S S S S S S
|-----------------------------------------|----------------------------------||
|-----------------------------------------|----------------------------------||
|-----------------------------------------|----------------------------------||
|-16-16-16-16-16-16-16-16-0-0-0-0-0-0-0-0-|-5-5-5-5-5-5-5-5-5-5-5-5-5-5-5-5--||


 Interlude
  H..       S  S    S  S  S S  S S S S S  S  S S S  S  S  S
|----------------|------------------------------------------|
|----------------|------------------------------------------|
|-------------11-|-11-12-11---11---9-9-----------9-11-11-11-|
|----------------|----------9----9-----9-12-11-9------------|


    S S S S S S S S S S S S S S S S   S S S S S S S S S S S S S S S S
||----------------------------------|----------------------------------||
||o---------------------------------|---------------------------------o||
||o---------------------------------|---------------------------------o||
||--4-5---9-9---5-5---5-5---2-4-4-4-|-4-5---9-9---5-5---5-5---2-4-4-4--||


     S S S S S S  S  S S S S S S S S T T   S S S S S S S S S S S S S S S S
||---------------------------------------|-----------------------------------||
||o--------------------------------------|----------------------------------o||
||o-11-------------------------7---------|----------------------------------o||
||-----9---9-9---11-12---5-5-----5---2-2-|-2-2---2-2---2-4---4-4---4-4-5-7---||


    S S S S  S S  S  S S S S S S S S S   S S S S S S S S S S S S S S S S
||-------------------------------------|----------------------------------||
||o------------------------------------|---------------------------------o||
||o---------11-----------------7-------|---------------------4-----------o||
||--9-9-9-9----9-11-12-5-5-5-5---5-5-5-|-2-2-2-2-2-2-2-4-4-4-----4-4-5-7--||


 Chorus 3
  W          E E E E H
|----------|--------------|
|----------|-----9--------|
|-7--------|---7---7------|
|----------|-9-------5----|


  H.       Q    Q.    S S Q  S S S S
|-------------|----------------------|
|-------------|----------------------|
|-------------|-2----h2-4p0----0-2-4-|
|-9-------12--|----------------------|


  Q  H.        E E E E H
|------------|--------------|
|----9-------|-----9--------|
|-7----------|---7---7------|
|------------|-9-------9----|


  H.       Q    S S S S S S S S S S S S S S S S
|-------------|---------------------------------||
|-------------|---------------------------------||
|-------------|-0-0-0-0-0-0-0-0-0-0-0-0-0-0-0-0-||
|-9-------12--|---------------------------------||


   Outro
     S  S  S  S  S  S  S  S S S S S S S S S
||------------------------------------------|
||o-----------------------------------------|
||o-----------------------------------------|
||--16-16-16-16-16-16-16-16-0-0-0-0-0-0-0-0-|


  S S S S S S S S S S S S S S S S  4x
|----------------------------------||
|---------------------------------o||
|---------------------------------o||
|-5-5-5-5-5-5-5-5-5-5-5-5-5-5-5-5--||


     E  E  S  S  S  S  S  S  S  S  S  S  S  S
||--------------------------------------------|
||o-------------------------------------------|
||o-------------------------------------------|
||--16-16-16-16-16-16-19-19-19-19-19-19-19-19-|


  S S S S S S S S S S S S S S S S
|----------------------------------||
|---------------------------------o||
|---------------------------------o||
|-5-5-5-5-5-5-5-5-5-5-5-5-5-5-5-5--||


   E  E Q   E  E Q    S S S S S S S S S S S S S S S S
|-------------------|---------------------------------|
|-------------------|---------------------------------|
|-------------------|---------------------------------|
|-16-16----19-19----|-5-5-5-5-5-5-5-5-5-5-5-5-5-5-5-5-|


     S  S  S  S  S  S  S  S S S S S S S S S
||------------------------------------------|
||o-----------------------------------------|
||o-----------------------------------------|
||--16-16-16-16-16-16-16-16-0-0-0-0-0-0-0-0-|


  S S S S S S S S S S S S S S S S
|----------------------------------||
|---------------------------------o||
|---------------------------------o||
|-5-5-5-5-5-5-5-5-5-5-5-5-5-5-5-5--||


Duration Legend
---------------
W - whole; H - half; Q - quarter; E - 8th; S - 16th; T - 32nd; X - 64th; a - acciaccatura
+ - note tied to previous; . - note dotted; .. - note double dotted
Uncapitalized letters represent notes that are staccato (1/2 duration)
Irregular groupings are notated above the duration line
Duration letters will always appear directly above the note/fret number it represents the
duration for.  Duration letters with no fret number below them represent rests.  Multi-
bar rests are notated in the form Wxn, where n is the number of bars to rest for.  Low
melody durations appear below the staff

Tablature Legend
----------------
 h   - hammer-on
 p   - pull-off
 b   - bend
 pb  - pre-bend
 r   - bend release (if no number after the r, then release immediately)
 /\  - slide into or out of (from/to "nowhere")
 s   - legato slide
 S   - shift slide
  - natural harmonic
[n]  - artificial harmonic
n(n) - tapped harmonic
 ~   - vibrato
 tr  - trill
 T   - tap
 TP  - trem. picking
 PM  - palm muting
\n/  - tremolo bar dip; n = amount to dip
 \n  - tremolo bar down
 n/  - tremolo bar up
/n\  - tremolo bar inverted dip
 =   - hold bend; also acts as connecting device for hammers/pulls
 <>  - volume swell (louder/softer)
 x   - on rhythm slash represents muted slash
 o   - on rhythm slash represents single note slash

Misc Legend
-----------
 |  - bar
||  - double bar
||o - repeat start
o|| - repeat end
*|  - double bar (ending)
 :  - bar (freetime)
 $  - Segno
 &  - Coda
Tempo markers -  = BPM(8/16=s8/s16), where s8 = swing 8ths, s16 = swing 16ths
Suggest correction
comments
print report bad tab
1 comment total.
0 reply
saroit 10 Jun 08, 2007 04:33 AM

nice dude!

guest
You may want to rate the tab now too:
select rating
Wanna post a correction for this tab? Suggest correction