Oops, an error
Loading. Please wait.

Neverender Tab

version 2
version 2

Whole song

Interactive

4,537 views 6 this week
2 commentsread comments
1 2 3 4 5
1 last vote to show rating
add to favorites
×
Save as Personal and add changes to this tab that will be seen only by you. Learn more ›
launch autoscroll
font size
0
reset
how to read this tab
guitar tuner
Autoscroll
slow
fast
+/-
esc
set tempo
stop
COHEED AND CAMBRIA
Neverender 

NOTE: Except where specifically noted, all of this is just Claudio's part.


Intro:
e|-------------------------------------------------------|
B|-------------------------------------------------------|
G|-------------------------------------------------------|
D|---6-6---6-6---4-4---2-2------PM-----PM----------------|
A|---4-4---0-0---0-0---0-0-----4\-6--6-6-6---------------|
E|-----------------------------2\-4--4-4-4---------------|

continued...
e|--------------------------------------------------------------|
B|------------------------------------------------------4-5-4-0-|
G|--------------------------------------------------------------|
D|----------------9-9----------------PM---PM---PM---PM----------|
A|---11-11-11-11--7-7--7-7--7-7-----4-4--4-4--4-6--6-6----------|
E|---9--9--9--9--------5-5--5-5-----2-2--2-2--2-4--4-4----------|

Verse:(all palm muted except for *)
e|--------------------------------------------------------------------------|
B|---------------------------------------------------------------*4-5*------|
G|--------------------------------------------------------------------------|
D|-----6-6-6-6---6-6-6-6---4-4-4-4----*6-6--6-6--6-6-6-6--6-6*--------------|
A|-----4-4-4-4---0-0-0-0---0-0-0-0----*7-7--7-7--7-7-7-7--7-7*--------------|
E|------------------------------------*5-5--5-5--5-5-5-5--5-5*--------------|

Chorus:
e|----0~------0~------------------------------------------------------------|
B|----0~------2~------------------------------------------------------------|
G|----1~------2~------------------------------------------------------------|
D|----2~------2~------6~-----9----------------------------------------------|
A|----2~------0~------4~-----7-----7~---------------------------------------|
E|----0~---------------------------5~---------------------------------------|

REPEAT 2ND HALF OF INTRO ONCE
REPEAT VERSE
REPEAT CHORUS

Bridge: "Point your gun in another direction"
e|--------------------------------------------------------------------------|
B|--------------------------------------------------------------------------|
G|-------------------------------------2-2-2-2-2-2-2-2-2-2-2-2-2-2-2-2------|
D|---6-6-6-6-6-6-6-6-------------------2-2-2-2-2-2-2-2-2-2-2-2-2-2-2-2------|
A|---4-4-4-4-4-4-4-4--2-2-2-2-2-2-2-2--0-0-0-0-0-0-0-0-0-0-0-0-0-0-0-0------|
E|--------------------0-0-0-0-0-0-0-0---------------------------------------|

WHEN CLAUDIO SINGS "after the fall" REPEAT 1ST HALF OF INTRO.
WHEN HE SINGS THE "will he be home again" PART, PLAY THE 2ND HALF.

REPEAT CHORUS
REPEAT BRIDGE
FADE OUT
AND YOU'RE DONE...

comments? questions? Spiderfork121@hotmail.com
Suggest correction
Give kudos to tab author, rate the tab!
1 2 3 4 5
comments
print report bad tab
2 comments total.
0 reply
KillTheSunset 10 Nov 29, 2010 12:13 PM

continued...
you have

e|-------------------------------------------------------|
B|---------------------------------------------------4-5-4-0|
G|-------------------------------------------------------|
D|--------------9-9----------------PM---PM---PM---PM-----|
A|-11-11-11-11--7-7--7-7--7-7-----4-4--4-4--4-6--6-6-----|
E|-9--9--9--9--------5-5--5-5-----2-2--2-2--2-4--4-4-----|

should be
e|------------------------------------------------------4-5-4-0-|
B|-------------------------------------------------------|
G|-------------------------------------------------------|
D|--------------8-9----------------PM---PM---PM---PM-----|
A|-11-11-11-11--6-7--7-7--7-7-----4-4--4-4--4-6--6-6-----|
E|-9--9--9--9--------5-5--5-5-----2-2--2-2--2-4--4-4-----|

0 reply
KillTheSunset 10 Nov 29, 2010 12:29 PM

also
you have

Verse:(all palm muted except for *)
e|--------------------------------------------------------------------------|
B|---------------------------------------------------------------*4-5*------|
G|--------------------------------------------------------------------------|
D|-----6-6-6-6---6-6-6-6---4-4-4-4----*6-6--6-6--6-6-6-6--6-6*--------------|
A|-----4-4-4-4---0-0-0-0---0-0-0-0----*7-7--7-7--7-7-7-7--7-7*--------------|
E|------------------------------------*5-5--5-5--5-5-5-5--5-5*--------------|


it should be
e|-------------------------------------------------------------------------------|
B|-------------------------------------------------------------------------------|
G|-------------------------------------------------------------------------------|
D|-----6-6-6-6---6-6-6-6---4-4-4-4----*7-7--7-7------6-6----------*--------------|
A|-----4-4-4-4---0-0-0-0---0-0-0-0----*7-7--7-7--6h7-x-x--7-7--6h7*--------------|
E|------------------------------------*5-5--5-5--5---5-5--5-5--5--*--------------|


im like 90% sure thats how its done on claudio's part at least

guest
You may want to rate the tab now too:
select rating
Wanna post a correction for this tab? Suggest correction