Oops, an error
Loading. Please wait.

No World For Tomorrow Bass Tab

version 1
version 1

Whole song

Interactive

6,998 views 3 this week
4 commentsread comments
1 2 3 4 5
accurate
x 6
add to favorites
launch autoscroll
font size
0
reset
guitar tuner
Autoscroll
slow
fast
+/-
esc
set tempo
stop
Help us to improve Ultimate-Guitar.com Take our survey!
×
Difficulty
intermediate
About time I got this up here.  I originally tabbed this for Cobalt and Calcium but I'm 
it up here to for you guys too.

This was taken from my Powertab tab of this and if I get the permission of the guy who 
out most of the guitar for that, I may upload that too.  In any case, eat and enjoy ^_^

Mic Todd FTW!!!


NO WORLD FOR TOMORROW (Bassline)
As recorded by Coheed And Cambria
(From the 2007 Album GOOD APOLLO I'M BURNING STAR IV VOLUME II: NO WORLD FOR TOMORROW)

Words by Claudio Sanchez

Music by Coheed And Cambria
Arranged by Felkara
Tuning - DADG; drop-D

Q=200
3/4
Gtr I
Wx7 Q q q H. +H. +H.
|----------|----------|---------|----------|----------|
|----------|----------|---------|----------|----------|
|----------|----------|---------|----------|----------|
|----------|----0--0--|-0-------|-(0)------|-(0)------|


+H. H. +H. H. +H.
|----------|---------|----------|---------|--------|
|----------|---------|----------|---------|--------|
|----------|---------|----------|---------|--------|
|-(0)------|-3-------|-(3)------|-2-------|-(2)----|


E E E q E E E E q E E E E q E E E E E E E E E E E E E
||-------------|------------|-----------|-------------|--------------|
||o------------|-------2--2-|-------3-3-|-------5-5---|--------------|
||o-------5--5-|------------|-----------|-3-5-3-----0-|-8-7-5--------|
||--0-3-0------|-3-0-3------|-2-0-2-----|-------------|-------8-7-5--|


E E E E E E E E E E E E E E E E E E 4x
|-------------|-------------|--------------||
|-------------|-------------|-------------o||
|-8-7-5-------|-------0-3-5-|-0-3---------o||
|-------8-7-5-|-0-3-5-------|-----5-3-2-0--||


e E +E E +E E H. e E +E E +E E q q q e Q Q E
|-----------------|---------|-----------------|---------|-------------|
|-----------------|---------|-----------------|---------|-------------|
|-----------------|---------|-----------------|---------|-------------|
|-0-0-(0)-0-(0)-0-|-0-------|-5-5-(5)-5-(5)-5-|-7--7--7-|-8-8--8--8---|


H. e Q Q E q q q
|---------|-----------|----------|
|---------|-----------|----------|
|---------|-----------|----------|
|-8-------|-3-3--3--3-|-5--5--5--|


E E E E E E H. E E E E E E q q q
|-------------|---------|-------------|----------|
|-------------|---------|-------------|----------|
|-8-7-5-------|---------|-8-7-5-------|----------|
|-------8-7-5-|-0-------|-------8-7-5-|-0--0--0--|


E E E E E E H. E E E E E E q q q
|-------------|---------|-------------|------------|
|-------------|---------|-------------|------------|
|-8-7-5-------|---------|-8-7-5-------|------------|
|-------8-7-5-|-0-------|-------8-7-5-|-0--0--0----|


E E E E E E E E E E E E E E E E E E E E E E E E
||--------------|-------------|-------------|-----------------|
||o-------------|-------------|-------------|-----------------|
||o-------------|-8-----------|-8-----------|---8-10----------|
||--8-8-8-8-8-8-|---8-8-8-8-8-|---8-8-8-8-8-|-8------10-10-10-|


E E E E E E E E E E E E E E E E E E E E E E E E
|-------------|-------------|-------------|---------------||
|-------------|-------------|-------------|--------------o||
|-------------|-------------|-------------|--------------o||
|-0-0---0-0-0-|-0-0---0-0-0-|-0-0---0-0-0-|-0-3-5-3-2-0---||


Q Q Q Q Q Q Q Q Q H.
|-------------|----------|-----------|-------|
|-------------|-8--7-----|----7------|-------|
|-----10------|-------7--|-8-----10--|-7-----|
|-10------10--|----------|-----------|-------|


Q Q Q Q Q Q Q Q Q Q Q Q
|----------|----------|----------|-----------|
|----------|----------|----------|-8--7------|
|----8-----|----------|----8-----|-------8---|
|-8-----7--|-8--8--7--|-5-----5--|-----------|


Q Q Q Q Q Q Q Q Q H.
|-------------|----------|-----------|-------|
|-------------|-8--7-----|----7------|-------|
|-----10------|-------7--|-8-----10--|-7-----|
|-10------10--|----------|-----------|-------|


Q Q Q Q Q Q Q Q Q Q Q Q
|----------|----------|----------|-----------|
|----------|----------|----------|-----------|
|----8-----|----------|----------|-----------|
|-8-----7--|-8--8--7--|-7--8--7--|-8--7--8---|


Q q E E H. Q q E E q q q
||------------|---------|-----------|----------|
||o-----------|---------|-----------|----------|
||o-----------|---------|-----------|----------|
||--7S=0--0-0-|-0-------|-7S=0--0-0-|-0--0--0--|


Q q E E H. E E E E E E E E E E E E
|-----------|---------|-------------|---------------||
|-----------|---------|-------------|--------------o||
|-----------|---------|-------0-3-5-|-0-3----------o||
|-7S=0--0-0-|-0-------|-0-3-5-------|-----5-3-2-0---||


H. +H. +H. +H. Wx12
|---------|----------|----------|----------|---------|
|---------|----------|----------|----------|---------|
|---------|----------|----------|----------|---------|
|-0-------|-(0)------|-(0)------|-(0)------|---------|


E E E q E E E E q E E E E q E E E E E E E
||-------------|------------|------------|-------------|
||o------------|-------2--2-|-------3--3-|-------5-5---|
||o-------5--5-|------------|------------|-3-5-3-----0-|
||--0-3-0------|-3-0-3------|-2-0-2------|-------------|


E E E E E E E E E E E E E E E E E E E E E E E E
|-------------|-------------|-------------|---------------||
|-------------|-------------|-------------|--------------o||
|-8-7-5-------|-8-7-5-------|-------0-3-5-|-0-3----------o||
|-------8-7-5-|-------8-7-5-|-0-3-5-------|-----5-3-2-0---||


e E +E E +E E H. e E +E E +E E q q q e Q Q E
|-----------------|---------|-----------------|----------|------------|
|-----------------|---------|-----------------|----------|------------|
|-----------------|---------|-----------------|----------|------------|
|-0-0-(0)-0-(0)-0-|-0-------|-5-5-(5)-5-(5)-5-|-7--7--7--|-8-8--8--8--|


H. e Q Q E q q q
|---------|-----------|----------|
|---------|-----------|----------|
|---------|-----------|----------|
|-8-------|-3-3--3--3-|-5--5--5--|


E E E E E E H. E E E E E E q q q
|-------------|---------|-------------|----------|
|-------------|---------|-------------|----------|
|-8-7-5-------|---------|-8-7-5-------|----------|
|-------8-7-5-|-0-------|-------8-7-5-|-0--0--0--|


E E E E E E H. E E E E E E q q q
|-------------|---------|-------------|------------|
|-------------|---------|-------------|------------|
|-8-7-5-------|---------|-8-7-5-------|------------|
|-------8-7-5-|-0-------|-------8-7-5-|-0--0--0----|


E E E E E E E E E E E E E E E E E E E E E E E E
||--------------|-------------|-------------|-----------------|
||o-------------|-------------|-------------|-----------------|
||o-------------|-8-----------|-8-----------|---8-10----------|
||--8-8-8-8-8-8-|---8-8-8-8-8-|---8-8-8-8-8-|-8------10-10-10-|


E E E E E E E E E E E E E E E E E E E E E E E E
|-------------|-------------|-------------|---------------||
|-------------|-------------|-------------|--------------o||
|-------------|-------------|-------------|--------------o||
|-0-0---0-0-0-|-0-0---0-0-0-|-0-0---0-0-0-|-0-3-5-3-2-0---||


Q Q Q Q Q Q Q Q Q H.
|-------------|----------|-----------|-------|
|-------------|-8--7-----|----7------|-------|
|-----10------|-------7--|-8-----10--|-7-----|
|-10------10--|----------|-----------|-------|


Q Q Q Q Q Q Q Q Q Q Q Q
|----------|----------|----------|------------|
|----------|----------|----------|-8--7-------|
|----8-----|----------|----8-----|-------8----|
|-8-----7--|-8--8--7--|-5-----5--|------------|


Q Q Q Q Q Q Q Q Q H.
|-------------|----------|-----------|-------|
|-------------|-8--7-----|----7------|-------|
|-----10------|-------7--|-8-----10--|-7-----|
|-10------10--|----------|-----------|-------|


Q Q Q Q Q Q Q Q Q Q Q Q
|----------|----------|----------|------------|
|----------|----------|----------|------------|
|----8-----|----------|----------|------------|
|-8-----7--|-8--8--7--|-7--8--7--|-8--7--8----|


H. +H. +H. +H.
|---------|----------|----------|----------|
|---------|----------|----------|----------|
|---------|----------|----------|----------|
|-0-------|-(0)------|-(0)------|-(0)------|


+H. +H. +H. +H.
|----------|----------|----------|--------|
|----------|----------|----------|--------|
|----------|----------|----------|--------|
|-(0)------|-(0)------|-(0)------|-(0)----|


+H. +H. +H. +H.
|----------|----------|----------|----------|
|----------|----------|----------|----------|
|----------|----------|----------|----------|
|-(0)------|-(0)------|-(0)------|-(0)------|


+H. +H. +H. +H Q
|----------|----------|------|----------|
|----------|----------|------|----------|
|----------|----------|------|----------|
|-(0)------|-(0)------|-(0)--|-(0)----1-|


q q q q q q q q q q q Q
||-----------|----------|----------|----------|
||o----------|----------|----------|----------|
||o----------|----------|----------|----------|
||--0--0--0--|-0--0--0--|-0--0--0--|-0--0--1--|


q q q q q q E E E E E E E E E E E E 4x
|----------|----------|-------------|---------------||
|----------|----------|-------------|--------------o||
|----------|----------|-------0-3-5-|-0-3----------o||
|-0--0--0--|-0--0--0--|-0-3-5-------|-----5-3-2-0---||


Q. E E E Q Q Q Q Q Q Q Q Q
||-------------|----------|----------|----------|
||o------------|----------|-3--------|----------|
||o------------|-3--------|----------|-5--------|
||--5----5-5-5-|----5--5--|----5--5--|----5--5--|


Q. E E E E E Q Q Q. E E E E E Q E E
|------------|-----------|------------|--------------||
|------------|-----------|------------|-------------o||
|-1----1-----|-1-3-1-----|-1----1-----|-1-3-1----1--o||
|--------3-3-|--------3--|--------3-3-|--------3-----||


H. +H. +H. +H.
|---------|----------|----------|--------|
|---------|----------|----------|--------|
|---------|----------|----------|--------|
|-0-------|-(0)------|-(0)------|-(0)----|


E E E E E E E E E E E E E E E E E E E E E E E E
|-------------|-------------|-------------|--------------|
|-------------|-------------|-------------|--------------|
|-8-7-5-------|-8-7-5-------|-------0-3-5-|-0-3----------|
|-------8-7-5-|-------8-7-5-|-0-3-5-------|-----5-3-2-0--|


E E E q E E E E q E E E E q E E E E E E E
|------------|------------|------------|--------------|
|------------|-------2--2-|-------3--3-|-------5-5----|
|-------5--5-|------------|------------|-3-5-3-----0--|
|-0-3-0------|-3-0-3------|-2-0-2------|--------------|


E E E E E E E E E E E E E q Q. E E E E E E
|-------------|-------------|-----------|--------------|
|-------------|-------------|-----------|--------------|
|-8-7-5-------|-8-7-5-------|-----------|-------0-3-5--|
|-------8-7-5-|-------8-7-5-|-0-0--7\---|-0-3-5--------|


E E E E E E E E E E E E E E E E E E E E E E E E
||--------------|-------------|-------------|-----------------|
||o-------------|-------------|-------------|-----------------|
||o-------------|-8-----------|-8-----------|---8-10----------|
||--8-8-8-8-8-8-|---8-8-8-8-8-|---8-8-8-8-8-|-8------10-10-10-|


E E E E E E E E E E E E E E E E E E E E E E E E
|-------------|-------------|-------------|---------------||
|-------------|-------------|-------------|--------------o||
|-------------|-------------|-------------|--------------o||
|-0-0---0-0-0-|-0-0---0-0-0-|-0-0---0-0-0-|-0-3-5-3-2-0---||


Q Q Q Q Q Q Q Q Q H.
|-------------|----------|-----------|-------|
|-------------|-8--7-----|----7------|-------|
|-----10------|-------7--|-8-----10--|-7-----|
|-10------10--|----------|-----------|-------|


Q Q Q Q Q Q Q Q Q Q Q Q
|----------|----------|----------|------------|
|----------|----------|----------|-8--7-------|
|----8-----|----------|----8-----|-------8----|
|-8-----7--|-8--8--7--|-5-----5--|------------|


Q Q Q Q Q Q Q Q Q H.
|-------------|----------|-----------|-------|
|-------------|-8--7-----|----7------|-------|
|-----10------|-------7--|-8-----10--|-7-----|
|-10------10--|----------|-----------|-------|


Q Q Q Q Q Q Q Q Q Q Q Q
|----------|----------|----------|------------|
|----------|----------|----------|------------|
|----8-----|----------|----------|------------|
|-8-----7--|-8--8--7--|-7--8--7--|-8--7--8----|


H.=H
H. +H. +H. +H.
|---------|----------|----------|----------|
|---------|----------|----------|----------|
|---------|----------|----------|----------|
|-0-------|-(0)------|-(0)------|-(0)------|


+H. +H. +H. +H. +H.
|----------|----------|----------|----------|--------*|
|----------|----------|----------|----------|--------*|
|----------|----------|----------|----------|--------*|
|-(0)------|-(0)------|-(0)------|-(0)------|-(0)----*|


Duration Legend
---------------
W - whole; H - half; Q - quarter; E - 8th; S - 16th; T - 32nd; X - 64th; a - acciaccatura
+ - note tied to previous; . - note dotted; .. - note double dotted
Uncapitalized letters represent notes that are staccato (1/2 duration)
Irregular groupings are notated above the duration line
Duration letters will always appear directly above the note/fret number it represents the
duration for. Duration letters with no fret number below them represent rests. Multi-
bar rests are notated in the form Wxn, where n is the number of bars to rest for. Low
melody durations appear below the staff
Suggest correction new What's this?
You can suggest a correction to this tab. Community and Mods will review your correction and vote to approve or reject it.
comments
print report bad tab
4 comments total. Showing first comments.
0 reply
SoftParade1967 1,226 wrote on February 3 2008, 07:30 pm

Damn this song is harder than i thought! But damn nice tab!

0 reply
Felkara 1,200 wrote on April 28 2008, 02:07 pm

It should be

E E E E E E E E E E E E E E E E E E 4x
|-------------|-------------|--------------||
|-8-7-5-------|-------------|-------------o||
|-------8-7-5-|-------0-3-5-|-0-3---------o||
|-------------|-0-3-5-------|-----5-3-2-0--|

In the verses, you've tabbed it one string too low in those runs.

It should follow the rhythm guitar part at that point. That's the only problem.

0 reply
Virus111 11 wrote on February 22 2010, 08:18 pm

What the hell? The beginning of this tab is ****ed up. It is WAY off. There is NO WAY there are that many notes.

guest
You may want to rate the tab now too:
select rating
Please do not post tabs as comments. Select "correction" instead!