Oops, an error
Loading. Please wait.

No World For Tomorrow Tab

version 1
version 1

Solo

Whole song

Interactive

2,122 views 1 this week
no commentswrite comment
1 2 3 4 5
please rate
add to favorites
launch autoscroll
font size
0
reset
how to read this tab
guitar tuner
Autoscroll
slow
fast
+/-
esc
set tempo
stop
Help us to improve Ultimate-Guitar.com Take our survey!
×
Author
Difficulty
intermediate
                             Coheed & Cambria
                           no world for tomorrow


intro(x2)
 pm      pm    pm     pm   pm
E----------------------------------------------------------------------------|
B----------------------------------------------------------------------------|
G----------------------------------------------------3-2-0-------3-2-0-------|
D---0h7p0---5p0---3p0---2p0------0h2-xx2b3-0---0-2-3-------3-2-0-------3-2-0-|
A----------------------------2p0-----xx--------------------------------------|
D-0-------0----0------0----0-------------------------------------------------|

A-------0h3h5-0h3h5---------|
D-0h3h5-------------0h5p3p0-|

verse
part 1(x2)
 pm---------------------------------------------------------------------|
E-----------------------------------------------------------------------|
B-----------------------------------------------------------------------|
G-----------------------------------------------3-2-0------3-2-0--------|
D----7p5p0---5p0--3p0--2p0-3p2---2b3-0---0-2-3-------3-2-0-------3-2-0--|
A-----------------------------------------------------------------------|
D-00-------0----0----0--------00----------------------------------------|

A-------0h3h5-0h3h5---------|
D-0h3h5-------------0h5p3p0-|

verse part 2
 pm--------------------------------------------------------|
E----------------------------------------------------------|
B----------------------------------------------------------|
G---------------------------------3-2-0-------3-2-0--------|
D----7--7---10--10---9--9---0-2-3-------3-2-0-------3-2-0--|
A----------------------------------------------------------|
D-00--0--00---0---00--0--00--------------------------------|

A-------0h3h5-0h3h5---------|
D-0h3h5-------------0h5p3p0-|

pre chorus
           (          x2            )
E-----------------------------------|
B-----------------------------------|
G-----------7----9---10---9---5---7-|
D-0---------------------------------|
A-0---------5----7---8----7---3---5-|
D-0---------0-----------------------|

chorus x2
  listen to song for D5 strumming
                            pm------| pm--------------------------------|
E-----------------------------------------------------------------------|
B-----------------------------------------------------------------------|
G-7---------------------------------------------------------------------|
D-7------------------------0---------0---------3-2-0-3-2-0-3-2-0-3-2-0--|
A-5------------------------0---------0----------------------------------|
D--------------------------0-0-0-0-0-0-0-0-0-0--------------------------|

                x2
E---------------------------------------|
B-----------5---------------------------|
G-7-------7----s10--9---7---3-2-0-3---5-|
D-7---------------------7---------3---5-|
A-5-----5------s8---7---5---------1---3-|
D---------------------------------------|

pre verse x2
E---------------------------------------------------------------------------|
B---------------------------------------------------------------------------|
G---------------------------------------------------------------------------|
D-0---------0---0---------0---0---0---0---------0---------------------------|
A-0---------0---0---------0---0---0---0---------0--------0h3h5-0h3h5--------|
D-0-0-0-0-0-0---0-0-0-0-0-0---0---0---0-0-0-0-0-0---0h3h5-----------0h5p3p0-|

verse
part 1
 (heavy palm mute throught)(x2)
E-----------------------------------------------------------------------|
B-----------------------------------------------------------------------|
G-----------------------------------------------3-2-0------3-2-0--------|
D----7p5p0---5p0--3p0--2p0-3p2---2b3-0---0-2-3-------3-2-0-------3-2-0--|
A-----------------------------------------------------------------------|
D-00-------0----0----0--------00----------------------------------------|

A-------0h3h5-0h3h5---------|
D-0h3h5-------------0h5p3p0-|

verse part 2
 pm--------------------------------------------------------|
E----------------------------------------------------------|
B----------------------------------------------------------|
G---------------------------------3-2-0-------3-2-0--------|
D----7--7---10--10---9--9---0-2-3-------3-2-0-------3-2-0--|
A----------------------------------------------------------|
D-00--0--00---0---00--0--00--------------------------------|

A-------0h3h5-0h3h5---------|
D-0h3h5-------------0h5p3p0-|

pre chorus
           (          x2            )
E-----------------------------------|
B-----------------------------------|
G-----------7----9---10---9---5---7-|
D-0---------------------------------|
A-0---------5----7---8----7---3---5-|
D-0---------0-----------------------|

chorus x2
                            pm------| pm--------------------------------|
E-----------------------------------------------------------------------|
B-----------------------------------------------------------------------|
G-7---------------------------------------------------------------------|
D-7------------------------0---------0---------3-2-0-3-2-0-3-2-0-3-2-0--|
A-5------------------------0---------0----------------------------------|
D--------------------------0-0-0-0-0-0-0-0-0-0--------------------------|

                x2
E---------------------------------------|
B-----------5---------------------------|
G-7-------7----s10--9---7---3-2-0-3---5-|
D-7---------------------7---------3---5-|
A-5-----5------s8---7---5---------1---3-|
D---------------------------------------|

pre verse x2
E---------------------------------------------------------------------------|
B---------------------------------------------------------------------------|
G---------------------------------------------------------------------------|
D-0---------0---0---------0---0---0---0---------0---------------------------|
A-0---------0---0---------0---0---0---0---------0--------0h3h5-0h3h5--------|
D-0-0-0-0-0-0---0-0-0-0-0-0---0---0---0-0-0-0-0-0---0h3h5-----------0h5p3p0-|

bridge part 1
  long rest, only vocals
         (                     x2                                       )
         pm--| pm--| pm--|        pm--| pm-------------------------------|
E------------------------------------------------------------------------|
B------------------------------------------------------------------------|
G------------------------------------------------------------------------|
D-5/12\--0-----0-----0-----0---1--0-----0-----------------------------0--|
A-5/12\--0-----0-----0-----0---1--0-----0-----------0-1-0-3-1-0-------0--|
D-5/12\--0-0-0-0-0-0-0-0-0-0-0-1--0-0-0-0-0-0--0-1-3------------5-3-1-0--|

bridge part 2
           x2
E---------------------------------------------------------|
B---------------------------------------------------------|
G-----7----10---5---5/7-----7-----------------------------|
D---------------------------------------------------------|
A-0-0-5-0--8--0-3-0-3/5-0-0-5---------0-1-0-3-1-0---------|
D-0-0---0-----0---0-----0-0-----0-1-3-------------5-3-1-0-|

interlude
           x2
E--------------------------------------------------------|
B---------4------8------4------------3------1------3-----|
G----7------7------7------7------3-----3------3------3---|
D------7------7------7------7------3-----3------3------3-|
A-5----------------------------1-------------------------|
D--------------------------------------------------------|

pre chorus

 pm      pm    pm     pm   pm
E----------------------------------------------------------------------------|
B----------------------------------------------------------------------------|
G----------------------------------------------------3-2-0-------3-2-0-------|
D---0h7p0---5p0---3p0---2p0------0h2-xx2b3-0---0-2-3-------3-2-0-------3-2-0-|
A----------------------------2p0-----xx--------------------------------------|
D-0-------0----0------0----0-------------------------------------------------|

A-------0h3h5-0h3h5---------|
D-0h3h5-------------0h5p3p0-|


E---------------------------------------------------------------------------|
B---------------------------------------------------------------------------|
G---------------------------------------------------3-2-0-------3-2-0-------|
D---0h7p0---5p0---3p0---2p0-----0h2-xx2b3-0---0-2-3-------3-2-0-------3-2-0-|
A---------------------------2p0-----xx--------------------------------------|
D-0-------0-----0-----0-----------------------------------------------------|

E------------------------|
B------------------------|
G------------------------| into chorus
D-x-x-x--12\-------------|
A-x-x-x--12\-------0h3h5-|
D-x-x-x--12\-0h3h5-------|

chorus x2
  listen to song for D5 strumming
                            pm------| pm--------------------------------|
E-----------------------------------------------------------------------|
B-----------------------------------------------------------------------|
G-7---------------------------------------------------------------------|
D-7------------------------0---------0---------3-2-0-3-2-0-3-2-0-3-2-0--|
A-5------------------------0---------0----------------------------------|
D--------------------------0-0-0-0-0-0-0-0-0-0--------------------------|

                x2
E---------------------------------------|
B-----------5---------------------------|
G-7-------7----s10--9---7---3-2-0-3---5-|
D-7---------------------7---------3---5-|
A-5-----5------s8---7---5---------1---3-|
D---------------------------------------|

  end on
E---
B-3-
G-2-
D-0-
A-0-
D-0-

There are a few open chords at the very end of the song that i couldn't figure
out, when i do i'll put them up.
cheers, and enjoy.
Suggest correction
Give kudos to tab author, rate the tab!
1 2 3 4 5
comments
print report bad tab
guest
You may want to rate the tab now too:
select rating
Wanna post a correction for this tab? Suggest correction