Oops, an error
Loading. Please wait.

No World For Tomorrow Tab

version 2
version 2

Whole song

Interactive

65,469 views 36 this week
16 commentsread comments
1 2 3 4 5
x 15
add to favorites
launch autoscroll
font size
0
reset
how to read this tab
guitar tuner
Autoscroll
slow
fast
+/-
esc
set tempo
stop
Help us to improve Ultimate-Guitar.com Take our survey!
×
Author
Tuning
D A D G B E
[Intro]
  Q=200
  D5
 3/4
[Gtr 1]
  PM   PM              PM    PM       PM|                   PM|
                                          |----3----|
  E  E E E E E    E  E E E E E   E  E E E E    +E  +E    E  E E E E E
E|--------------|---------------|-----------------------|--------------|
B|--------------|---------------|-----------------------|--------------|
G|--------------|---------------|-----------------------|--------------|
D|--------7-----|--5------------|-----------------------|--------------|
A|----8-----8-0-|-----8---7-5---|----5-x-x-7b8==(7)r(7)-|-5------5-8-5-|
D|-0----0-------|-------0-----0-|-7----0-0--------------|----0-0-------|

[Gtr 2]
 | >
 | H.             +H.             H.                      H.
E|--------------|---------------|-----------------------|--------------|
B|--------------|---------------|-----------------------|--------------|
G|--------------|---------------|-----------------------|--------------|
D|-0------------|-(0)-----------|-----------------------|--------------|
A|-0------------|-(0)-----------|-----------------------|--------------|
D|-0------------|-(0)-----------|-----------------------|--------------|

   E  E E E E E   E  E E E E E   E  E E E E E   E E E E E E
E|--------------|--------------|--------------|-------------|
B|--------------|--------------|--------------|-------------|
G|--------------|--------------|--------------|-------------|
D|-8--7-5-------|-8--7-5-------|--------------|-------------|
A|--------8-7-5-|--------8-7-5-|--------0-3---|-0-3---------|
D|--------------|--------------|-0--3-5-----0-|-----5-3-2-0-|

                                                   PM--|
 | H.             H.             H.             Q   q   q
E|--------------|--------------|--------------|-------------|
B|--------------|--------------|--------------|-------------|
G|--------------|--------------|--------------|-------------|
D|--------------|--------------|--------------|-------------|
A|--------------|--------------|--------------|-----0---0---|
D|--------------|--------------|--------------|-----0---0---|

  PM   PM              PM    PM        PM|                    PM|
                                           |----3----|
  E  E E E E E    E  E E E E E    E  E E E E    +E  +E     E  E E E E E
E|--------------|---------------|------------------------|----------------|
B|--------------|---------------|------------------------|----------------|
G|--------------|---------------|------------------------|----------------|
D|--------7-----|--5------------|------------------------|----------------|
A|----8-----8-0-|-----8---7-5---|-----5-x-x-7b8==(7)r(7)-|--5------5-8-5--|
D|-0----0-------|-------0-----0-|--7----0-0--------------|-----0-0--------|

  H.             +H.             +H.                      +H.
E|--------------|---------------|------------------------|----------------|
B|--------------|---------------|------------------------|----------------|
G|--------------|---------------|------------------------|----------------|
D|-0------------|-(0)-----------|-(0)--------------------|-(0)------------|
A|-0------------|-(0)-----------|-(0)--------------------|-(0)------------|
D|-0------------|-(0)-----------|-(0)--------------------|-(0)------------|

   F5                             E5
   E  E E E E E    E  E E E E E   E  E E E E E    E  E E E E E
E|--------------|---------------|--------------|---------------|
B|--------------|---------------|--------------|---------------|
G|--------------|---------------|--------------|---------------|
D|-8--7-5-------|--8--7-5-------|--------------|---------------|
A|--------8-7-5-|---------8-7-5-|--------0-3---|--0--3---------|
D|--------------|---------------|-0--3-5-----0-|-------5-3-2-0-|

  H.             +H.             H.             +H.
E|--------------|---------------|--------------|---------------|
B|--------------|---------------|--------------|---------------|
G|--------------|---------------|--------------|---------------|
D|-3------------|-(3)-----------|-2------------|-(2)-----------|
A|-3------------|-(3)-----------|-2------------|-(2)-----------|
D|-3------------|-(3)-----------|-2------------|-(2)-----------|

[Verse]
    N.C.
    PM-----------------------------------------------------------|
                                        |----3----|
    E E E E E E   E E E E E E   E E E E E    +E  +E    E E E E E E
E|--------------|-------------|----------------------|-------------|
B|o-------------|-------------|----------------------|-------------|
G|--------------|-------------|----------------------|-------------|
D|--------7-----|-5-----------|----------------------|-------------|
A|o---8-----8-0-|---8---7-5---|---5-x-x-7b8==(7)r(7)-|-5-----5-8-5-|
D|--0---0-------|-----0-----0-|-7---0-0--------------|---0-0-------|

   PM-----------------------------------------------------------|
                                       |----3----|
   E E E E E E   E E E E E E   E E E E E    +E  +E    E E E E E E
E|--------------|-------------|----------------------|-------------|
B|o-------------|-------------|----------------------|-------------|
G|--------------|-------------|----------------------|-------------|
D|--------7-----|-5-----------|----------------------|-------------|
A|o---8-----8-0-|---8---7-5---|---5-x-x-7b8==(7)r(7)-|-5-----5-8-5-|
D|--0---0-------|-----0-----0-|-7---0-0--------------|---0-0-------|

   PM-----------------------------------------------------|
   E E E  E E E    E E E  E E E   E E E E E E   E E E E E E
E|---------------|---------------|-------------|--------------|
B|---------------|---------------|-------------|-------------o|
G|---------------|---------------|-------------|--------------|
D|--8-7-5--------|--8-7-5--------|-------------|--------------|
A|---------8-7-5-|---------8-7-5-|-------0-3---|-0-3---------o|
D|---------------|---------------|-0-3-5-----0-|-----5-3-2-0--|

                                 PM----------------------|
  E E E  E E E    E E E  E E E   E E E E E E   E E E E E E
E|---------------|---------------|-------------|--------------|
B|---------------|---------------|-------------|-------------o|
G|-10-9-7--------|-10-9-7--------|-------------|--------------|
D|--------10-8-7-|--------10-8-7-|-------------|--------------|
A|---------------|---------------|-------0-3---|-0-3---------o|
D|---------------|---------------|-0-3-5-----0-|-----5-3-2-0--|

    $
    PM-------------------------------------------------------------|
                                        |-----3-----|
    E E E E E E   E E E E E E   E E E E E    +E    +E    E E E E E E
E|--------------|-------------|------------------------|-------------|
B|o-------------|-------------|------------------------|-------------|
G|--------------|-------------|------------------------|-------------|
D|--------7-----|-5-----------|------------------------|-------------|
A|o---8-----8-0-|---8---7-5---|---5-x-x-7b8==(7)r==(7)-|-5-----5-8-5-|
D|--0---0-------|-----0-----0-|-7---0-0----------------|---0-0-------|

   PM--|   PM    PM--|   PM    PM--|   PM               PM--------|
   E E E E E E   E E E E E E   E E E E E        E       E E E E E E
E|--------------|-------------|------------------------|-------------|
B|o-------------|-------------|------------------------|-------------|
G|--------------|-------5---5-|-------4----------4-----|-------------|
D|--------7---7-|-------------|------------------------|-------------|
A|o---8---------|---8---------|---8--------------------|-5-----5-8-5-|
D|--0---0---0---|-0---0---0---|-0---0---0--------------|---0-0-------|

   PM-----------------------------------------------------|
   E E E  E E E    E E E  E E E   E E E E E E   E E E E E E
E|---------------|---------------|-------------|--------------|
B|---------------|---------------|-------------|-------------o|
G|---------------|---------------|-------------|--------------|
D|--8-7-5--------|--8-7-5--------|-------------|--------------|
A|---------8-7-5-|---------8-7-5-|-------0-3---|-0-3---------o|
D|---------------|---------------|-0-3-5-----0-|-----5-3-2-0--|

                                 PM----------------------|
  E E E  E E E    E E E  E E E   E E E E E E   E E E E E E
E|---------------|---------------|-------------|--------------|
B|---------------|---------------|-------------|-------------o|
G|-10-9-7--------|-10-9-7--------|-------------|--------------|
D|--------10-8-7-|--------10-8-7-|-------------|--------------|
A|---------------|---------------|-------0-3---|-0-3---------o|
D|---------------|---------------|-0-3-5-----0-|-----5-3-2-0--|

[Pre-Chorus]
   D5                   G5         A5
   H.        +H.         H.         H.
E|---------|----------|----------|--------|
B|---------|----------|----------|--------|
G|---------|----------|----------|--------|
D|-0-------|-(0)------|-12-------|-14-----|
A|-0-------|-(0)------|-10-------|-12-----|
D|-0-------|-(0)------|----------|--------|

  H.        +H.        +H.        +H.
E|---------|----------|----------|--------|
B|---------|----------|----------|--------|
G|---------|----------|----------|--------|
D|-0-------|-(0)------|-(0)------|-(0)----|
A|-0-------|-(0)------|-(0)------|-(0)----|
D|-0-------|-(0)------|-(0)------|-(0)----|

   Bb5                    F5         G5
    H.         +H.         H.         H.
E|----------|-----------|----------|--------|
B|----------|-----------|----------|--------|
G|----------|-----------|----------|--------|
D|-15-------|-(15)------|-10-------|-12-----|
A|-13-------|-(13)------|--8-------|-10-----|
D|----------|-----------|----------|--------|

  +H.         +H.        +H.        +H.
E|----------|-----------|----------|--------|
B|----------|-----------|----------|--------|
G|----------|-----------|----------|--------|
D|-(0)------|--(0)------|-(0)------|-(0)----|
A|-(0)------|--(0)------|-(0)------|-(0)----|
D|-(0)------|--(0)------|-(0)------|-(0)----|

   D5                        G5              A5
   H.             +H.         H.              H.
E|--------------|----------|---------------|------------|
B|--------------|----------|---------------|------------|
G|--------------|----------|---------------|------------|
D|-0------------|-(0)------|-12------------|-14---------|
A|-0------------|-(0)------|-10------------|-12---------|
D|-0------------|-(0)------|---------------|------------|

 PM------------------------------------------------|
 E  E E E E E    H.         E  E E E E E    Q   Q  Q
E|--------------|----------|---------------|------------|
B|--------------|----------|---------------|------------|
G|--------------|----------|---------------|------------|
D|--------------|----------|---------------|------------|
A|-8--7-5-------|--0-------|--8--7-5-------|--0---0--0--|
D|--------8-7-5-|--0-------|---------8-7-5-|--0---0--0--|

   Bb5                         F5             G5
    H.              +H.         H.             H.
E|---------------|-----------|--------------|--------------|
B|---------------|-----------|--------------|--------------|
G|---------------|-----------|--------------|--------------|
D|-15------------|-(15)------|-10-----------|-12-----------|
A|-13------------|-(13)------|--8-----------|-10-----------|
D|---------------|-----------|--------------|--------------|

  PM------------------------------------------------|
  E  E E E E E     H.         E  E E Q.      E  E E Q.
E|---------------|-----------|--------------|--------------|
B|---------------|-----------|--------------|--------------|
G|---------------|-----------|--------------|--------------|
D|---------------|-----------|--------------|--------------|
A|--8--7-5-------|---0-------|--8--7-5------|--8--7-5------|
D|---------8-7-5-|---0-------|---------7----|---------7----|

 [Chorus]
     $$
     Bb5
 (Gtr 1, 2)
     E E E E E E   E E E E E E   E E E E E E   E E E E E E
E|--------------|-------------|-------------|--------------|
B|o-------------|-------------|-------------|--------------|
G|--------------|-------------|-------------|--------------|
D|--8-8-8-8-8-8-|-8-8-8-8-8-8-|-8-8-8-8-8-8-|-8-8-8-8-8-8--|
A|o-8-8-8-8-8-8-|-8-8-8-8-8-8-|-8-8-8-8-8-8-|-8-8-8-8-8-8--|
D|--8-8-8-8-8-8-|-8-8-8-8-8-8-|-8-8-8-8-8-8-|-8-8-8-8-8-8--|

   D5
   PM|   PM--------|   PM
   E E E Q   E   E E E Q   E   E E E E E E   E E E E E E
E|-------------|-------------|-------------|--------------||
B|-------------|-------------|-------------|-------------o||
G|-------------|-------------|-------------|--------------||
D|-------------|-------------|-------------|--------------||
A|-0-0---0---0-|-0-0---0---0-|-8p7p0-8p7p0-|-8p7p0-8p7p0-o||
D|-0-0---0---0-|-0-0---0---0-|-------------|--------------||

[Gtr 3]
 PM--------------------------------------------------|
 E E E E E E   E E E E E E   E E E E E E   E E E E E E
E|-------------|-------------|-------------|--------------|
B|-------------|-------------|-------------|-------------o|
G|-------------|-------------|-------------|--------------|
D|-------------|-------------|-------------|--------------|
A|-0-0-0-0-0-0-|-0-0-0-0-0-0-|-0-0-0-0-0-0-|-0-0-0-0-0-0-o|
D|-0-0-0-0-0-0-|-0-0-0-0-0-0-|-0-0-0-0-0-0-|-0-0-0-0-0-0--|

   C5               N.C.
 [Gtr 1]
    H.         +Q    Q  Q     H.         H.         H.         +Q   Q  Q
E|----------|--------------|----------|----------|----------|-------------|
B|----------|--------------|----------|----------|----------|-------------|
G|----------|--------------|----------|----------|----------|-------------|
D|-10-------|-(10)--/7--5--|----------|----------|----------|-------------|
A|-10-------|-(10)---------|--8-------|--7-------|----------|-------------|
D|-10-------|-(10)---------|----------|----------|--8-------|--(8)--8--7--|

 [Gtr 2]
   H.         +H.            H.         H.         H.         +H.
E|----------|--------------|-13-------|-12-------|----------|-------------|
B|----------|--------------|----------|----------|-11-------|-(11)--------|
G|----------|--------------|----------|----------|----------|-------------|
D|-10-------|-(10)---------|----------|----------|----------|-------------|
A|-10-------|-(10)---------|----------|----------|----------|-------------|
D|-10-------|-(10)---------|----------|----------|----------|-------------|

     H.           H.
E|-------------|---------------------|
B|-------------|---------------------|
G|-------------|---------------------|
D|-------------|---------------------|
A|-------------|---------------------|
D|---5---------|--7------------------|

   +Q   Q  Q     Q    +Q       +Q
E|-------------|---------------------|
B|-(11)--------|-10---(10)b11r=(10)--|
G|-------7-----|---------------------|
D|----------8--|---------------------|
A|-------------|---------------------|
D|-------------|---------------------|

   C5               N.C.
    H.         +Q    Q  Q     H.         H.
E|----------|--------------|----------|--------|
B|----------|--------------|----------|--------|
G|----------|--------------|----------|--------|
D|-10-------|-(10)--/7--5--|----------|--------|
A|-10-------|-(10)---------|--8-------|--7-----|
D|-10-------|-(10)---------|----------|--------|

   H.         +H.            H.         H.
E|----------|--------------|-13-------|-12-----|
B|----------|--------------|----------|--------|
G|----------|--------------|----------|--------|
D|-10-------|-(10)---------|----------|--------|
A|-10-------|-(10)---------|----------|--------|
D|-10-------|-(10)---------|----------|--------|

                                          To Coda
                                          To Coda
                           A5  Bb5 A5    Bb5 A5  Bb5
                            PM-------------------|
   H.         +Q   Q  Q     Q   Q   Q     Q   Q   Q
E|----------|-------------|-------------|-------------|
B|----------|-------------|-------------|-------------|
G|----------|-------------|-------------|-------------|
D|----------|-------------|-------------|-------------|
A|----------|-------------|--7---8---7--|--8---7---8--|
D|--8-------|--(8)--8--7--|--7---8---7--|--8---7---8--|

   H.         +H.           Q   Q   Q     Q   Q   Q
E|----------|-------------|-------------|-------------|
B|-11-------|-(11)--------|-10--11--10--|-11--10--11--|
G|----------|-------------|-------------|-------------|
D|----------|-------------|-------------|-------------|
A|----------|-------------|-------------|-------------|
D|----------|-------------|-------------|-------------|

[Pre-Verse]
    A5    D5                A5    D5
[Gtr 1, 2]
          PM  PM                  PM  PM--------|
    Q   E E E E   H.        Q   E E E E   Q  Q  Q
E|--------------|---------|-------------|-----------|
B|o-------------|---------|-------------|-----------|
G|--------------|---------|-------------|-----------|
D|--7\----------|-0-------|-7\----------|-----------|
A|o-7\----0---0-|-0-------|-7\----0---0-|-0--0--0---|
D|--7\----0---0-|-0-------|-7\----0---0-|-0--0--0---|

   A5    D5                N.C.
         PM  PM
   Q   E E E E   H.        E E E E E E   E E E E E E
E|-------------|---------|-------------|--------------|
B|-------------|---------|-------------|-------------o|
G|-------------|---------|-------------|--------------|
D|-7\----------|-0-------|-------------|--------------|
A|-7\----0---0-|-0-------|-------0-3---|-0-3---------o|
D|-7\----0---0-|-0-------|-0-3-5-----0-|-----5-3-2-0--|

[Verse]
    N.C.
(Gtr 1)
    PM-----------------------------------------------------------|
                                        |----3----|
    E E E E E E   E E E E E E   E E E E E    +E  +E    E E E E E E
E|--------------|-------------|----------------------|-------------|
B|o-------------|-------------|----------------------|-------------|
G|--------------|-------------|----------------------|-------------|
D|--------7-----|-5-----------|----------------------|-------------|
A|o---8-----8-0-|---8---7-5---|---5-x-x-7b8==(7)r(7)-|-5-----5-8-5-|
E|--0---0-------|-----0-----0-|-7---0-0--------------|---0-0-------|

  PM--------------------------------------------------|
  E E E E E E   E E E E E E   E E E E E E   E E E E E E
E|-------------|-------------|-------------|--------------|
B|-------------|-------------|-------------|-------------o|
G|-------------|-------------|-------------|--------------|
D|-8-7-5-------|-8-7-5-------|-------------|--------------|
A|-------8-7-5-|-------8-7-5-|-------0-3---|-0-3---------o|
E|-------------|-------------|-0-3-5-----0-|-----5-3-2-0--|

                                               D.S. al Coda
  D5
  PM---------------------------------------------------------|
  E  E E E E E    E  E E E E E    E  E E E E E    E  E E E E E
E|--------------|---------------|---------------|---------------|
B|--------------|---------------|---------------|---------------|
G|--------------|---------------|---------------|---------------|
D|-8--7-5-------|--8--7-5-------|---------------|---------------|
A|--------8-7-5-|---------8-7-5-|---------0-3---|--0--3---------|
E|--------------|---------------|--0--3-5-----0-|-------5-3-2-0-|

 [Gtr 2]
  H.             +H.             +H.             +H.
E|--------------|---------------|---------------|---------------|
B|--------------|---------------|---------------|---------------|
G|--------------|---------------|---------------|---------------|
D|-0------------|-(0)-----------|-(0)-----------|-(0)-----------|
A|-0------------|-(0)-----------|-(0)-----------|-(0)-----------|
D|-0------------|-(0)-----------|-(0)-----------|-(0)-----------|

 [Breakdown]
                                                       A5
   H.          +H.        +H.        +H.          H    Q
E|---------||-----------|----------|-----------|-----------|
B|---------||o----------|----------|----------o|-----------|
G|---------||-----------|----------|-----------|-----------|
D|-0-------||--(0)------|-(0)------|-(0)-------|------7\---|
A|-0-------||o-(0)------|-(0)------|-(0)------o|------7\---|
D|-0-------||--(0)------|-(0)------|-(0)-------|------7\---|

    D5                                     A5
    PM----------------------------------|
    Q  Q  Q    Q  Q  Q    Q  Q  Q    Q  Q  Q
E|-----------|----------|----------|------------|
B|o----------|----------|----------|------------|
G|-----------|----------|----------|------------|
D|--0--0--0--|-0--0--0--|-0--0--0--|-0--0--7\---|
A|o-0--0--0--|-0--0--0--|-0--0--0--|-0--0--7\---|
E|--0--0--0--|-0--0--0--|-0--0--0--|-0--0--7\---|

  D5                    N.C.
  PM---------------|
  Q  Q  Q    Q  Q  Q    E E E E E E   E E E E E E
E|----------|----------|-------------|--------------|
B|----------|----------|-------------|-------------o|
G|----------|----------|-------------|--------------|
D|-0--0--0--|-0--0--0--|-------------|--------------|
A|-0--0--0--|-0--0--0--|-------0-3---|-0-3---------o|
E|-0--0--0--|-0--0--0--|-0-3-5-----0-|-----5-3-2-0--|

    D5                                        A5
[Gtr 1]
    PM-----------------------------------|
    Q  Q  Q     Q  Q  Q    Q  Q  Q    Q   Q   Q
E|-----------|-----------|----------|--------------|
B|o----------|-----------|----------|--------------|
G|-----------|-----------|----------|--------------|
D|--0--0--0--|--0--0--0--|-0--0--0--|-0---0---7\---|
A|o-0--0--0--|--0--0--0--|-0--0--0--|-0---0---7\---|
E|--0--0--0--|--0--0--0--|-0--0--0--|-0---0---7\---|

[Gtr 2]
   PM----|        PM-|       PM-|
   Q  Q  Q     Q  Q  Q    Q  Q  Q    Q  +Q   Q
E|-----------|-----------|----------|--------------|
B|o----------|-----------|----------|--------------|
G|-----------|-10--------|-9--------|-5--(5)--8----|
D|--0--0--0--|--x--0--0--|-x--0--0--|-x-------x----|
A|o-0--0--0--|--8--0--0--|-7--0--0--|-3--(3)--6----|
E|--0--0--0--|-----0--0--|----0--0--|--------------|

  D5                    N.C.
  PM---------------|
  Q  Q  Q    Q  Q  Q    E E E E E E   E E E E E E
E|----------|----------|-------------|--------------|
B|----------|----------|-------------|-------------o|
G|----------|----------|-------------|--------------|
D|-0--0--0--|-0--0--0--|-------------|--------------|
A|-0--0--0--|-0--0--0--|-------0-3---|-0-3---------o|
E|-0--0--0--|-0--0--0--|-0-3-5-----0-|-----5-3-2-0--|

    PM------------|
 Q  Q  Q    Q  Q  Q    E E E E E E   E E E E E E
E|----------|----------|-------------|--------------|
B|----------|----------|-------------|-------------o|
G|-7--------|----------|-------------|--------------|
D|-x--0--0--|-0--0--0--|-------------|--------------|
A|-5--0--0--|-0--0--0--|-------0-3---|-0-3---------o|
E|----0--0--|-0--0--0--|-0-3-5-----0-|-----5-3-2-0--|

[Bridge]
     G5
      Q   Q    Q     Q  Q  Q     Q  Q   Q     Q  Q   Q
E|----------------|----------|-------------|-------------|
B|o---------------|----------|-------------|-------------|
G|----------------|----------|-------------|-------------|
D|---5---5----5---|-5--5--5--|--5--5---5---|-5--5---5----|
A|o--5---5----5---|-5--5--5--|--5--5---5---|-5--5---5----|
D|---5---5----5---|-5--5--5--|--5--5---5---|-5--5---5----|

     Q.     Q   E   Q  Q  Q     Q  Q  +Q     Q  Q  +Q
E|----------------|-8--------|-10--8--(8)--|-8-----------|
B|o---------------|----6-----|-------------|----6--(6)---|
G|--/7-----10---7-|-------7--|-------------|-------------|
D|----------------|----------|-------------|-------------|
A|o---------------|----------|-------------|-------------|
D|----------------|----------|-------------|-------------|

   Bb5
    Q   Q   Q     Q  Q  Q    Q  Q  Q    Q  Q  Q
E|--------------|----------|----------|-----------|
B|--------------|----------|----------|----------o|
G|--------------|----------|----------|-----------|
D|--8---8---8---|-8--8--8--|-8--8--8--|-8--8--8---|
A|--8---8---8---|-8--8--8--|-8--8--8--|-8--8--8--o|
D|--8---8---8---|-8--8--8--|-8--8--8--|-8--8--8---|

   Q.    Q   E   Q  Q  Q    Q  Q  Q    Q  Q  Q
E|--------------|----------|-6--------|-----------|
B|--------------|-6--------|----------|-6--------o|
G|--------7-----|----7-----|----7-----|----7------|
D|-/8---------8-|-------8--|-------8--|-------8---|
A|--------------|----------|----------|----------o|
D|--------------|----------|----------|-----------|

[Interlude]
   N.C.
   PM  PM            PM    PM      PM|  ~~~     PM|
   E E E E E E   E E E E E E   E E E E  Q     E E E E E E
E|-------------|-------------|--------------|-------------|
B|-------------|-------------|--------------|-------------|
G|-------------|-------------|--------------|-------------|
D|-------7-----|-5-----------|--------------|-------------|
A|---8-----8-0-|---8---7-5---|---5-x-x-[7]--|-5-----5-8-5-|
D|-0---0-------|-----0-----0-|-7---0-0------|---0-0-------|

   E E E E E E   E E E E E E   E E E E E E   E E E E E E
E|-------------|-------------|-------------|-------------|
B|-------------|-------------|-------------|-------------|
G|-------------|-------------|-------------|-------------|
D|-8-7-5-------|-8-7-5-------|-------------|-------------|
A|-------8-7-5-|-------8-7-5-|-------0-3---|-0-3---------|
D|-------------|-------------|-0-3-5-----0-|-----5-3-2-0-|

[Gtr 1]
   PM  PM            PM    PM      PM|  ~~~      PM|
   E E E E E E   E E E E E E   E E E E  Q      E E E E E E
E|-------------|-------------|---------------|-------------|
B|-------------|-------------|---------------|-------------|
G|-------------|-------------|---------------|-------------|
D|-------7-----|-5-----------|---------------|-------------|
A|---8-----8-0-|---8---7-5---|---5-x-x-[7]---|-5-----5-8-5-|
D|-0---0-------|-----0-----0-|-7---0-0-------|---0-0-------|

[Gtr 2]
 PM--|   PM    PM--|   PM    PM--|    PM     PM--------|
 E E E E E E   E E E E E E   E E E E  E  E   E E E E E E
E|-------------|-------------|---------------|-------------|
B|-------------|-------------|---------------|-------------|
G|-------------|-------5---5-|-------4-----4-|-------------|
D|-------7---7-|-------------|---------------|-------------|
A|---8---------|---8---------|---8-----------|-5-----5-8-5-|
D|-0---0---0---|-0---0---0---|-0---0----0----|---0-0-------|

                                       D.S.S. al Dbl. Coda
                                   D5    A5     N.C.
                                   PM|
    E E E  E E E    E E E  E E E   E E E Q.     E E E E E E
E|---------------|---------------|------------|-------------|
B|---------------|---------------|------------|-------------|
G|---------------|---------------|------------|-------------|
D|--8-7-5--------|--8-7-5--------|-------7\---|-------------|
A|---------8-7-5-|---------8-7-5-|-0-0---7\---|-------0-3---|
D|---------------|---------------|-0-0---7\---|-0-3-5-----0-|

                                  PM|
   E E E  E E E    E E E  E E E   E E E Q.     E E E E E E
E|---------------|---------------|------------|-------------|
B|---------------|---------------|------------|-------------|
G|-10-9-7--------|-10-9-7--------|------------|-------------|
D|--------10-8-7-|--------10-8-7-|-------7\---|-------------|
A|---------------|---------------|-0-0---7\---|-------0-3---|
D|---------------|---------------|-0-0---7\---|-0-3-5-----0-|

[Outro]
   H.=H
   &&
   D5                   Bbsus2      C5
   H.        +H.         +H.         +H.
E|---------|----------|-----------|---------|
B|---------|----------|-----------|---------|
G|---------|----------|-----------|---------|
D|-0-------|-(0)------|--(0)------|--(0)----|
A|-0-------|-(0)------|--(0)------|--(0)----|
D|-0-------|-(0)------|--(0)------|--(0)----|

 [Gtr 4]
  H.         H.          H.          H.
E|---------|----------|-^-8-------|-^-x-----|
B|---------|----------|-^11-------|-^13-----|
G|---------|----------|-^10-------|-^12-----|
D|---------|----------|-^-8-------|-^10-----|
A|---------|----------|-^-8-------|-^10-----|
D|---------|----------|-^-8-------|-^10-----|

   Dsus2                 Bbsus2      C5          Dsus2
    >
   +H.        +H.         +H.         +H.        +H.
E|----------|----------|-----------|-----------|--------*|
B|----------|----------|-----------|-----------|--------*|
G|----------|----------|-----------|-----------|--------*|
D|-(0)------|-(0)------|--(0)------|--(0)------|-(0)----*|
A|-(0)------|-(0)------|--(0)------|--(0)------|-(0)----*|
D|-(0)------|-(0)------|--(0)------|--(0)------|-(0)----*|

   H.        +H.          H.          H.         H.
E|-^0-------|-(0)------|-^-8-------|-^-x-------|-^0-----*|
B|-^3-------|-(3)------|-^11-------|-^13-------|-^3-----*|
G|-^2-------|-(2)------|-^10-------|-^12-------|-^2-----*|
D|-^0-------|-(0)------|-^-8-------|-^10-------|-^0-----*|
A|-^0-------|-(0)------|-^-8-------|-^10-------|-^0-----*|
D|-^0-------|-(0)------|-^-8-------|-^10-------|-^0-----*|


************************************

| x    Dead note
| b    Bend
| (n)  Ghost note
| >    Accented note
| PM   Palm mute
| p    Pull-off
| /    Slide up
| \    Slide down
| [n]  Artificial harmonic
| ~    Vibrato
| *    Natural harmonic

************************************
Suggest correction
comments
print report bad tab
16 comments total. Showing first comments. show 2 bad comments
+6 reply
osmark90 195 Oct 30, 2007 04:59 PM

Great tab man... u mapped it out second to none dude.
2 things though, I might be wrong but constructive criticism is always healthy right? right!:

During the chorus it sounds more like he plays:
g|---------------------
D|--3p2p0-3p2p0--ect.--
A|---------------------

and during the heavy but oh-so-satisfying breakdown when its open strings you tabbed:

D|--0-0-0--7\--
A|--0-0-0--7\--
E|--0-0-0--7\--

think it sounds more like:

D|--0-0-0--1--
A|--0-0-0--1--
E|--0-0-0--1--
with like a bend or vibrato cherry on top... but ima gonna stop being anal... good job dude seriously

guest
You may want to rate the tab now too:
select rating
Wanna post a correction for this tab? Suggest correction