Oops, an error
Loading. Please wait.

Pearl Of The Stars Tab

version 2
version 2

Whole song

Interactive

12,569 views 15 this week
no commentswrite comment
1 2 3 4 5
accurate
x 7
add to favorites
launch autoscroll
font size
0
reset
how to read this tab
guitar tuner
Tab Pro tools
  • play this tab
  • loop segment
  • change instrument
  • show fretboard
  • metronome
×
Best way to learn
"Pearl Of The Stars"
Autoscroll
slow
fast
+/-
esc
set tempo
stop
Contributor
Tuning: Half-Step Down

Intro/Verse x6

eb|--------0----------------------0-----------------0-------------------------|
Bb|--0-------0--------------0-------0-------------0---0---------5-------3-0---|
Gb|----5---------5p4------7------------5p4p0----5-------5p4p0-----5---------0-|
Db|------7------------0h5------5--------------3---------------------5---------|
Ab|-------------------------------------------------------------3-------2-----|
Eb|---------------------------------------------------------------------------|

Pre-Chorus/Chorus x4

     F             Am            C             F 
eb|-----------------------------------------------------------|
Bb|------------------------------------5----------------------|
Gb|--------0-------------5-----------5---5-----------0--------|
Db|------3---3---------7---7-------5-------5-------3---3------|
Ab|----3-------3-----7-------7---3---------------3-------3----|
Eb|--1-------------5---------------------------1--------------|

(this before "...my pearl of the stars")
eb|----------------------------------------|
Bb|----------------------------------------|
Gb|--------0-------------0-----------------|
Db|------3---3---------3---3---------------|
Ab|----3-------3-----3-------3-------------|
Eb|--1-------------1-----------------------|

then:

verse x6
chorus x4
solo
chorus x8
comments
print report bad tab
I want to post or [tab]
guest
You may want to rate the tab now too:
select rating
Please do not post tabs as comments. Select "correction" instead!