Oops, an error
Loading. Please wait.

Radio Bye Bye Bass Tab

version 1
version 1

Whole song

Interactive

4,355 views 9 this week
1 commentread comment
1 2 3 4 5
excellent!
x 6
add to favorites
launch autoscroll
font size
0
reset
guitar tuner
Autoscroll
slow
fast
+/-
esc
set tempo
stop
Help us to improve Ultimate-Guitar.com Take our survey!
×
Author
"Radio Bye Bye" No World For Tomorrow by Coheed and Cambria
tabbed by gtrzmbie

tuning: standard (E A D G)

*Note* Michael Todd mixes things up a bit, so depending on the chorus, this tab will be 
inaccurate if you simply take one chorus and repeat it. Because of this, I have decided 
tab out every chorus and bridge. Sorry for the length, but enjoy, anyway.

Intro/verse

G|-----------------------------------------------------------------|
D|-----------0h2-------------0h2-------------2-2-2-----------------|
A|-------0h3-----3-------0h3-----3-0---0-0---------0---0-0---3-2-0-|
E|-1---1-----------1---1-------------------------------------------|


G|-----------------------------------------------------------------|
D|-----------0h2-------------0h2---------2-0-----------------------|
A|-------0h3-----3-------0h3-----3-0---0-----3-2-0-------5-3-2-0---|
E|-1---1-----------1---1---------------------------3---3---------3-|

Bridge 1

G|-----------------------------------------------------------------|
D|-----------------------------------------------------------------|
A|---------0---0---3---3---3---3p2---------------------------------|
E|-1---1---------------------------3---3---3---3---3---3---3---3---|

G|-----------------------------------------------------------------|
D|-----------------------------------------------------------------|
A|---------0---0---3---3---3---3p2---------------------------------|
E|-1---1---------------------------3---3---3---3---3---3---3---3---|

Chorus 1

G|---------------------------------------2---------------2---------|
D|---------------------------------0---0---0-2-3-2-0---0---0-3-2-2-|
A|-------3-------3-------3-----0-3---------------------------------|
E|-1---1---1---1---1---1---1-3-------------------------------------|


G|-----------------------------------------------------------------|
D|-------2-------2---2---2-----------------------------------------|
A|-0---0---0---0---0---0---0-3-2---------5-------5-------5-----3p2-|
E|---------------------------------3---3---3---3---3---3---3-------|


G|-----------0-2-0-------2---------------2---------------2---------|
D|-3---3-3-3-------3---3---3-5-3-2-0---0---0-2-3-2-0---0---0-3-2-2-|
A|-----------------------------------------------------------------|
E|-----------------------------------------------------------------|


G|-----------------------------------------------------------------|
D|-------2-------2-------2-----------------------------------------|
A|-0---0---0---0---0---0---0-3-2-----------5-----5---5---5---3-2-0-|
E|---------------------------------3---3-------3---3---3---3-------|

Verse


Bridge 2

G|-----------------------------------------------------------------|
D|-----------------------------------------------------------------|
A|---------0---0---3---3---3---3p2---------------------------------|
E|-1---1---------------------------3---3---3---3---3---3---3---3---|


G|-----------------------------------------------------------------|
D|-----------------------------------------------------------------|
A|---------0---0---3---3---3---3p2---------------------------------|
E|-1---1---------------------------3---3---3---3---3---3---3-5-3---|


G|-----------------------------------------------------------------|
D|-----------------------------------------------------------------|
A|---------0---0---3---3---3---3p2---------------------------------|
E|-1---1---------------------------3---3---3---3---3---3---3---3---|


G|-----------------------------------------------------------------|
D|-------------------------------------------5-5-----5-5-----------|
A|---------0---0---3---3---3---3p2-------5-------5-------5-3---2---|
E|-1---1---------------------------3---3---3-------3---------------|


Chorus 2

G|-------------------------------------------------------2---------|
D|---------------------------------0---0-0-0-2-3-2-0---0---0-3-2-2-|
A|-------3---3---3-------3-----0-3---------------------------------|
E|-1---1---1---1---1---1---1-3-------------------------------------|


G|-------------2---------------------------------------------------|
D|-------2---2---2-------2-----------------------------------------|
A|-0---0---0-------0---0---0-3-2---------5-------5-------5-----3p2-|
E|---------------------------------3---3---3---3---3---3---3-------|


G|-----------0-2-0-------2---------------2-------2-------2---------|
D|-3---3-3-3-------3---3---3-5-3-2-0---0---0---0---0---0---0-3-2-2-|
A|-----------------------------------------------------------------|
E|-----------------------------------------------------------------|


G|-------2---------------0-----------------------------------------|
D|-----2-------2-------2-------------------------------------------|
A|-0-------0-------0-------0-3-2-----------5-----5-------5---3-2-0-|
E|---------------------------------3---3-------3---3---3---3-------|

Guitar Solo

G|-----------------------------------------------------------------|
D|-----------0h2-------------0h2-------------2-2-2-----------------|
A|-------0h3-----3-------0h3-----3-0---0-0---------0---0-0---3-2-0-|
E|-1---1-----------1---1-------------------------------------------|


G|-----------------------------------------------------------------|
D|-----------0h2-------------0h2---------2-0-----------------------|
A|-------0h3-----3-------0h3-----3-0---0-----3-2-0-------5-3-2-0---|
E|-1---1-----------1---1---------------------------3---3---------3-|


G|-----------------------------------------------------------------|
D|-----------0h2-------------0h2---------2-0-----------------------|
A|-------0h3-----3-------0h3-----3-0---0-----3-2---0---0-0---3-2---|
E|-1---1-----------1---1-------------------------------------------|


G|-----------------------------------------------------------------|
D|-----------0h2-------------0h2---------2-0-----------------------|
A|-------0h3-----3-------0h3-----3-0---0-----3-2-0-------5-3-2-0---|
E|-1---1-----------1---1---------------------------3---3---------3-|

Bridge 3

G|-----------------------------------------------------------------|
D|-----------------------------------------------------------------|
A|-----------------------------------0-0-0-0-0-0-0-0-0-0-0-0-0-0-0-|
E|-----------------------------------------------------------------|


G|-----------------------------------------------------------------|
D|-----------------------------------------------------------------|
A|---------0---0---3---3---3---3p2---------------------------------|
E|-1---1---------------------------3---3---3---3---3---3---3---3---|


G|-----------------------------------------------------------------|
D|-----------------------------------------------------------------|
A|---------0---0---3---3---3---3p2---------------------------------|
E|-1---1---------------------------3---3---3---3---3---3---3---3---|


G|-----------------------------------------------------------------|
D|-----------------------------------------------------------------|
A|---------0---0---3---3---3---3p2---------------------------------|
E|-1---1---------------------------3---3---3---3---3---3---3---3---|

Chorus 3

G|---------------------------------------2---------------2---------|
D|---------------------------------0---0---0-2-3-2-0---0---0-3-2-2-|
A|-------3-------3-------3-----0-3---------------------------------|
E|-1---1---1---1---1---1---1-3-------------------------------------|


G|-------2-------2-------------------------------------------------|
D|-----------2-----------2-----------------------------------------|
A|-0---0---0---0---0---0---0-3-2---------5-------5-------5-----3p2-|
E|---------------------------------3---3---3---3---3---3---3-------|


G|-----------0-2-0-----------------------2---------------2---------|
D|-3---3-3-3-------3---3-3-3-5-3-5-0---0---0-2-3-2-0---0---0-3-2-2-|
A|-----------------------------------------------------------------|
E|-----------------------------------------------------------------|


G|-------2-------0-------0-----------------------------------------|
D|-----2-------2-------2-------------------------------------------|
A|-0-------0-------0-------0-3-2-----------5-----5-------5---3-2-0-|
E|---------------------------------3---3-------3---3---3---3-------|

G|---------------------------------------2---------------2---------|
D|---------------------------------0---0---0-2-3-2-0---0---0-3-2-2-|
A|-------3-------3-------3-----0-3---------------------------------|
E|-1---1---1---1---1---1---1-3-------------------------------------|


G|-------------------2---------------------------------------------|
D|-------2-------2-------2-----------------------------------------|
A|-0---0---0---0---0---0---0-3-2-2-------5-------5-------5-----3p2-|
E|---------------------------------3---3---3---3---3---3---3-------|


G|-----------0-2-0-------2-------------------2-----------2---------|
D|-3---3-3-3-------3---3---3-5-3-2-0---0-0-0---0-2-0---0---0-3-2-2-|
A|-----------------------------------------------------------------|
E|-----------------------------------------------------------------|


G|-----------2-----------------------------------------------------|
D|-------2-------2-------2-----------------------------------------|
A|-0---0---0---0---0---0---0-3-2-----------5-----5---5---5---3-2-0-|
E|---------------------------------3---3-------3---3---3---3-------|
Suggest correction
comments
print report bad tab
1 comment total.
0 reply
willmclnz 52 wrote on October 16 2009, 12:53 am

Sick tab bro. Pure class

guest
You may want to rate the tab now too:
select rating
Wanna post a correction for this tab? Suggest correction