Oops, an error
Loading. Please wait.

Radio Bye Bye Tab

version 1
version 1

Intro

Whole song

Interactive

356 views 1 this week
no commentswrite comment
1 2 3 4 5
3 more votes to show rating
add to favorites
launch autoscroll
font size
0
reset
how to read this tab
guitar tuner
×
Best way to learn
"Radio Bye Bye"
Autoscroll
slow
fast
+/-
esc
set tempo
stop
Author
Difficulty
intermediate
Coheed And Cambria
"Radio Bye Bye"
No World For Tomorrow
2008

This isn't an intro, it's the chorus. They should put this option in the "What part:" 
section when puttin' in tabs.

I looked at a tab for this song and notice the lead chorus sounded wrong when i played 
it from that. Played around and figured out the real notes to the lead chorus.

Lead

e-----------------------------------|   e----------------------------------|
B------------------------8-8--------|   B----------------------------------|
G--------9-9------------------------|or G--------9-9-------------12-12-----|
D--10-10-----10----10-10-----10-----|   D--10-10-----10----10-10------10---|
A---------------8----------------5--|   A---------------8----------------5-|
E-----------------------------------|   E----------------------------------|

e----------------------------|
B----------------------------|
G------7-7----------5-5------|
D--7-7-----7----7-7-----7----|
A------------5---------------|
E-------------------------5--|

e----------------------------|
B----------------------------|
G----------------------------|
D------7-7----------5-5------|
A--7-7-----7----7-7-----7----|
E------------5------------3--|

e----------------------------|
B----------------------------|
G----------------------------|
D------5-5----------5-5------|
A--5-5-----5----5-5-----5----|
E------------3------------3--|

Tabbed by X8<-(Triggar8)->8X

Enjoy.
Suggest correction
Give kudos to tab author, rate the tab!
1 2 3 4 5
comments
print report bad tab
guest
You may want to rate the tab now too:
select rating
Wanna post a correction for this tab? Suggest correction