Oops, an error
Loading. Please wait.

Radio Bye Bye Tab

version 1
version 1

Whole song

Interactive

12,522 views 15 this week
2 commentsread comments
1 2 3 4 5
accurate
x 5
add to favorites
launch autoscroll
font size
0
reset
how to read this tab
guitar tuner
Tab Pro tools
  • play this tab
  • loop segment
  • change instrument
  • show fretboard
  • metronome
×
Best way to learn
"Radio Bye Bye"
Autoscroll
slow
fast
+/-
esc
set tempo
stop
Contributor
Difficulty
novice
Artist: coheed and cambria
Song: radio bye bye
Album: good Apollo im burning star iv: no world for tomorrow
Tabbed by: andrew kikuchi

So I looked for a tab to this song, only had the intro and verse so heres the rest

 Im not 100% sure on the verse lead and the bridge guitar
Standard tuning

Intro/verse
E--------------------------------------------------|
B--------------------------------------------------|
G----------------------------4h5-------4h5---------|
D-------0h2--------0h2----5-7-------5-7------------|
A3-0h2h3----1-0h2h3----7-7-------7-7---------------|
E1----------3----------5---------5-----------------|
Verse lead
E------------------------------------------------------|
B------------------------------------------------------|
G-----4-5-4--4-----------------------------------------|
D--5-7------7--7-5-7---5-5h7---------------------------|
A-7----------------7-----------------------------------|
e------------------------------------------------------|
prechorus “tellem that u did it”
E---------------------------------------------------|
B---------------------------------------------------|
G---------------------------------------------------|
D---------------------------------------------------|
A3-3--7-7--10-10-10-/-12--5-5-5---------------------|
E1-1--5-5--8--8--8--/-10--3-3-3---------------------|
Prechorus lead
E------------------------------------------------|
B-----------55----------5-4----------------------|
G------55-----7-5-4----7----5--------------------|
D-5-77---77---------55---------------------------|
A------------------------------------------------|
e------------------------------------------------|
chorus
E--F-dmin-amin----G---------------------------------------------|
B---------------------------------------------------------------|
G---------------------------------------------------------------|
D-----77--------------------------------------------------------|
A--33-55---77----55---------------------------------------------|
E--11------55----33---------------------------------------------|
  f
E-------------------------------------------------------------------------------|
B----------------------88-------------------------------------------------------|
G--------99---------------9--------77--------55--------55-----------------------|
D--10-10---10-----10-10----10----77---7---77---7-----77---7-------55------------|
A-8-----------8-8--------------5-------5-5-------5--7-------7-5-77---7-5-5-5-5--|
e------------------------------------------------------------------------3-3-3--|
solo (same chords as chorus)
E---------------------------------------------------------------------|
B5-8-5-8^10-10-8-6-5--6-5--5------------------------------------------|
G-------------------------7---7-5^------------------------------------|
D-----------------------------------5h7h5h7h5h7h5h7h5h7h5h7h5---------|
A---------------------------------------------------------------------|
e---------------------------------------------------------------------|

E--5-5h8p5-5h7h5-threetimes-reallyfast—8/10-9-8-5-7-5--5---------|
B----------------------------------------------------8--6-8-6-5--|
G----------------------------------------------------------------|
D----------------------------------------------------------------|
A----------------------------------------------------------------|
e----------------------------------------------------------------|

E--------------------------------10-12-10------------------------|
B5//8-6-5-6-5-5//8-6-5-6---10-12---------12-10-12^13v12^13v12----|
G------------------------7---------------------------------------|
D----------------------------------------------------------------|
A----------------------------------------------------------------|
e----------------------------------------------------------------|

E------------------------19^21-21^23-----------------------------------|
B21^-------------------------------------------------------------------|
G----21-19-17-19-17-16-------------------------------------------------|
D----------------------------------------------------------------------|
A----------------------------------------------------------------------|
e----------------------------------------------------------------------|
bridge uh oh, it’s the curse of the radio bye bye
E-------------------------------------------------------------------|
B-------------------------------------------------------------------|
G-------------------5-4-5-4------------------5-4-5-4----------------|
D-------------0h2h5---------------------0h2h5-----------------------|
A-0h2h3—0h3h5--------------0h2h3-0h2h5------------------------------|
e-------------------------------------------------------------------|

well that’s the song peace and namunae
comments
print report bad tab
2 comments total.
+1 reply
inferno420 wrote on June 10 2008, 10:34 am

god i must have been high or something.

0 reply
fender25 wrote on June 11 2010, 05:21 pm

Intro/verse
E--------------------------------------------------|
B--------------------------------------------------|
G--------------------------------4h5/4----------------
D-------0h2p0 ------------------------------------------
A33-0h2-------------------77--5h7----------------------
E11----------2times-------55-------------------2 times

then same first part 2x and change the second half

E--------------------------------------------------|
B--------------------------------------------------|
G----------------------------7-5-4-------7-5-4-----
D-------0h2p0 ---------------------5-----------5
A33-0h2-------------------77----------55----------
E11----------2times-------55----------33-----------

that should help bro
haven't check the rest of the tab tho...

I want to post or [tab]
guest
You may want to rate the tab now too:
select rating
Please do not post tabs as comments. Select "correction" instead!