Oops, an error
Loading. Please wait.

Random Reality Shifts tab

version 1
version 1

Whole song

Interactive

11,287 views 3 this week
3 commentsread comments
1 2 3 4 5
x 12
add to favorites
×
Save as Personal and add changes to this tab that will be seen only by you. Learn more ›
×
You can save this tab as Personal to edit and correct it or add notes. All changes will be seen only by you. Learn more »
launch autoscroll
font size
0
reset
how to read this tab
guitar tuner
edit
Autoscroll
slow
fast
+/-
esc
set tempo
stop
[Intro/Verse 1]
     (x2)                                   (x2)
e|---------------------------------|---------------------------------| (x3)
B|---------------------------------|---------------------------------|
G|-2-2-2-------------0-0---------0-|---------------------------------|
D|-------0-0-3-3-2-2-----3-3-0-3---|-------0-----0---------0---3-2---|
A|---------------------------------|-1-1-1---0-1---3---0-3---0-----3-|
D|---------------------------------|---------------------------------|

[Verse 2]
e|-----------------------------------------------------------|
B|-----------------------------------------------------------|
G|-----------------------------------------------------------|
D|-0-0--0-0-0--0-0-0--0-3-3-2-2----------------------3-3-2-2-|
A|------------------------------1-1--1-1-1--1-1-1--1---------|
D|-----------------------------------------------------------|

E|---------------------------------------------------------|
e|---------------------------------------------------------|
B|---------------------------------------------------------|
G|---------------------------------------------------------|
D|---------------------------------------------------------|
A|-3-3--3-3-3--3-3-3--3-3-3--3-1-1--1-1-1--0-1-0---0-1-3---|
D|-----------------------------------------------0---------|

e|-----------------------------------------------------------|
B|-----------------------------------------------------------|
G|-----------------------------------------------------------|
D|-0-0--0-0-0--0-0-0--0-3-3-2-2----------------------3-3-2-2-|
A|------------------------------1-1--1-1-1--1-1-1--1---------|
D|-----------------------------------------------------------|

e|--------------------------------------------------------|
B|--------------------------------------------------------|
G|--------------------------------------------------------|
D|----------------------3-3-2-2---------------------------|
A|-3-3--3-3-3--3-3-3--3---------1-1--1-1-1--0-1-0---0-1-3-|
D|------------------------------------------------0-------|

[Chorus]
e|--------------------------------------------------|
B|--------------------------------------------------|
G|--------------------------------------------------|
D|-33xxxx33xxxx33xxxx33xxxx77xxxx77xxxx77xxxx77xxxx-|
A|-11xxxx11xxxx11xxxx11xxxx55xxxx55xxxx55xxxx55xxxx-|
D|--------------------------------------------------|

e|--------------------------------------------------| (x2)
B|--------------------------------------------------|
G|--------------------------------------------------|
D|-33xxxx33xxxx33xxxx33xxxx77xxxx77xxxx555555555555-|
A|-11xxxx11xxxx11xxxx11xxxx55xxxx55xxxx333333333333-|
D|--------------------------------------------------|

e|---|
B|---|
G|---|
D|-3-|
A|-1-|
D|---|

[Instrumental]
     (x2)                                   (x2)
e|---------------------------------|---------------------------------| (x2)
B|---------------------------------|---------------------------------|
G|-2-2-2-------------0-0---------0-|---------------------------------|
D|-------0-0-3-3-2-2-----3-3-0-3---|-------0-----0---------0---3-2---|
A|---------------------------------|-1-1-1---0-1---3---0-3---0-----3-|
D|---------------------------------|---------------------------------|

[Chorus] (x2)
e|-------|
B|-------|
G|-------|
D|-3---2-|
A|-1---0-|
D|-------|

e|---0-1---0-1---0-1----1-0-----0-----0-----0------|
B|-3-----3-----3-----3-------3-----3-----3-----3---|
G|---------------------2-------2-----2-----2-----2-|
D|-------------------------------------------------|
A|-------------------------------------------------|
D|-------------------------------------------------|

e|-3-----3-----3-----3-----1-----1-----1-----1-----|
B|---3-----3-----3-----3-----3-----3-----3-----3---|
G|-----3-----3-----3-----3-----2-----2-----2-----2-|
D|-------------------------------------------------|
A|-------------------------------------------------|
D|-------------------------------------------------|

e|-5-0-1---0-1---0-1---0-1-0-----0-----0-----0-----|
B|-------3-----3-----3-------3-----3-----3-----3---|
G|-----------------------------2-----2-----2-----2-|
D|-------------------------------------------------|
A|-------------------------------------------------|
D|-------------------------------------------------|

e|-3-----3-----3-----3-----1-----1-----5-|
B|---3-----3-----3-----3-----3-----3-----|
G|-----3-----3-----3-----3-----2-----2---|
D|---------------------------------------|
A|---------------------------------------|
D|---------------------------------------|

e|------------------------------------------------x2|
B|--------------------------------------------------|
G|--------------------------------------------------|
D|-------------777777777777333333333333777777555552-|
A|-------------555555555555111111111111555555333330-|
D|-555555555555-------------------------------------|

e|--------------|
B|--------------|
G|--------------|
D|-333333333333-|
A|-111111111111-|
D|--------------|

e|--------------------------------------------------------|
B|--------------------------------------------------------|
G|--------------------------------------------------------|
D|-000-xx000-xx000-x033220-------------------3322---------|
A|------------------------0111-xx111-xx111-x1----11333-xx-|
D|--------------------------------------------------------|

e|----------------------------------------------|
B|----------------------------------------------|
G|----------------------------------------------|
D|--------------3322----------------------------|
A|-333-xx333-xx3----30111-xx111-xx1000000000000-|
D|----------------------------------------------|

[Chorus] (x4)
e|-------|
B|-------|
G|-------|
D|-3-----|
A|-1---0-|
D|-----0-|


************************************

| x  Dead note

************************************

            
            
Suggest correction
Creating personal tab
Creating personal tab
You can edit any tab online and save it as your Personal.

You can edit, replace or remove any tab part or add personal notes – all changes will be seen only by you.

Personal tabs can be accessed anytime from any device, even offline.
Learn more »
comments
print report bad tab
3 comments total.
+7 reply
AceMoney 371 Apr 10, 2013 01:26 PM

Good tab, I think the 2nd part of the intro goes like this

e|--------------------------------|
B|--------------------------------|
G|--------------------------------|
D|-------0-----0--------0---3-2---|
A|-1-1-1---0-1---3--0-3---0-----3-|
E|--------------------------------|

+1 reply
Redlakes 10 Jan 23, 2016 10:28 AM

AceMoney is right about the intro.
Also, no need to tune to Drop-D. Just play a G (3) on the low E instead of a G (5) on a low D.

+1 reply
Redlakes 10 Jan 23, 2016 10:29 AM

e|--------------------------------|
B|--------------------------------|
G|--------------------------------|
D|-------0-----0--------0---3-2---|
A|-1-1-1---0-1---3--0-3---0-----3-|
E|--------------------------------|

guest
You may want to rate the tab now too:
select rating
Wanna post a correction for this tab? Suggest correction