Oops, an error
Loading. Please wait.

Ring In Return Tab

version 2
version 2

Whole song

Interactive

1,777 views 1 this week
1 commentread comment
1 2 3 4 5
1 last vote to show rating
add to favorites
launch autoscroll
font size
0
reset
how to read this tab
guitar tuner
Autoscroll
slow
fast
+/-
esc
set tempo
stop
Help us to improve Ultimate-Guitar.com Take our survey!
×
Author
Difficulty
Tabbers playing skills
advanced
advanced +
                    
   

Gtr I (E A D G B E) - 'telephone arr. for gtr.'
Gtr II (E A D G B E) - 'piano arr. for gtr.'
Gtr III (E A D G B E) - 'strings arr. for gtr.'
Gtr IV (E A D G B E) - 'strings arr. for gtr.'
Gtr V (E A D G B E) - 'strings arr. for gtr.'

   Intro
    Moderately Q=80
    N.C.
    Gtr I
     H.      Q    W           H.      Q    W             Q  H.
||--------------|----------|-------------|-----------||-----------||
||o-------------|----------|-------------|----------o||-----------||
||--------------|----------|-------------|-----------||-----------||
||--------------|----------|-------------|-----------||-----------||
||o-15----------|----------|-15----------|----------o||-15--------||
||--------------|----------|-------------|-----------||-----------||


   Main Theme
    Faster Q=180
    (A)
    Gtr II
                                      |--3--|
    H     +E  E E  E    a  H.         E  E  E
||--5-----(5)-7-8-10-|----17---------15-13-12-|
||o----5-------------|-18------5--------------|
||--2------5---------|------------5-----------|
||-------------------|-----3------------------|
||o------------------|------------------------|
||-------------------|------------------------|
|   Q  Q   H               Q   Q  H
|
|   Gtrs III, IV
|   W                      W
||--5----------------|----17------------------|
||o------------------|------------------------|
||--2----------------|----14------------------|
||-------------------|------------------------|
||o------------------|------------------------|
||-------------------|------------------------|


  (Em)
   H.         Q     Q   Q  Q  Q
|-12---------10--|-12--13--8--7---|
|----------------|----------------|
|------0---------|------0---------|
|---------2------|---------2------|
|--3-------------|--2-------------|
|----------------|----------------|
|  Q   Q  H         Q   Q  H
|
|  H.         Q     Q   Q  Q  Q
|-12---------10--|-12--13--8--7---|
|----------------|----------------|
|--9-------------|----------------|
|----------------|----------------|
|----------------|----------------|
|----------------|----------------|


  (A)                                         (Em)
                                    |--3--|
  H     +E  E E  E    a  H.         E  E  E    H.        Q    H     H
|-5-----(5)-7-8-10-|----17---------15-13-12-|-12---------8--|-8-----7-----||
|----5-------------|-18------5--------------|---------------|------------o||
|-2------5---------|------------5-----------|------0--------|----0--------||
|------------------|-----3------------------|---------2-----|-------2-----||
|------------------|------------------------|--3------------|-2----------o||
|------------------|------------------------|---------------|-------------||
| Q  Q   H               Q   Q  H              Q   Q  H       Q  Q  H
|
| W                      W                     H.        Q    H     H
|-5----------------|----17------------------|-12---------8--|-8-----7-----||
|------------------|------------------------|---------------|------------o||
|-2----------------|----14------------------|--9------------|-------------||
|------------------|------------------------|---------------|-------------||
|------------------|------------------------|---------------|------------o||
|------------------|------------------------|---------------|-------------||


    (A)
                                      |--3--|
    H     +E  E E  E    a  H.         E  E  E
||--5-----(5)-7-8-10-|----17---------15-13-12-|
||o----5-------------|-18------5--------------|
||--2------5---------|------------5-----------|
||-------------------|-----3------------------|
||o------------------|------------------------|
||-------------------|------------------------|
|   Q  Q   H               Q   Q  H
|
|   W                      W
||--5----------------|----17------------------|
||o------------------|------------------------|
||--2----------------|----14------------------|
||-------------------|------------------------|
||o------------------|------------------------|
||-------------------|------------------------|
|
|   Gtr V
|   W                      W
||--5----------------|----17------------------|
||o------------------|------------------------|
||--2----------------|----14------------------|
||-------------------|------------------------|
||o------------------|------------------------|
||-------------------|------------------------|


  (Em)
    H.         Q      Q    Q  Q  Q
|--12---------10--|--12---13--8--7---|
|-----------------|------------------|
|-------0---------|--------0---------|
|----------2------|-----------2------|
|---3-------------|---2--------------|
|-----------------|------------------|
|   Q   Q  H          Q    Q  H
|
|   H.         Q      Q    Q  Q  Q
|--12---------10--|--12---13--8--7---|
|-----------------|------------------|
|---9-------------|------------------|
|-----------------|------------------|
|-----------------|------------------|
|-----------------|------------------|
|
|   W                +W
|-[17]------------|-(17)-------------|
|--22-------------|-(22)-------------|
|-----------------|------------------|
|-----------------|------------------|
|-----------------|------------------|
|-----------------|------------------|


  (A)                                         (Em)
                                    |--3--|
  H     +E  E E  E    a  H.         E  E  E     H.        Q      H      H
|-5-----(5)-7-8-10-|----17---------15-13-12-|--12---------8--|---8------7-----||
|----5-------------|-18------5--------------|----------------|---------------o||
|-2------5---------|------------5-----------|-------0--------|-------0--------||
|------------------|-----3------------------|----------2-----|----------2-----||
|------------------|------------------------|---3------------|---2-----------o||
|------------------|------------------------|----------------|----------------||
| Q  Q   H               Q   Q  H               Q   Q  H         Q   Q  H
|
| W                      W                      H.        Q      H      H
|-5----------------|----17------------------|--12---------8--|---8------7-----||
|------------------|------------------------|----------------|---------------o||
|-2----------------|----14------------------|---9------------|----------------||
|------------------|------------------------|----------------|----------------||
|------------------|------------------------|----------------|---------------o||
|------------------|------------------------|----------------|----------------||
|
| W                      W                      W               +W
|-5----------------|----17------------------|-[17]-----------|-(17)-----------||
|------------------|------------------------|--22------------|-(22)----------o||
|-2----------------|----14------------------|----------------|----------------||
|------------------|------------------------|----------------|----------------||
|------------------|------------------------|----------------|---------------o||
|------------------|------------------------|----------------|----------------||


  (A)
                                    |--3--|
  H     +E  E E  E    a  H.         E  E  E
|-5-----(5)-7-8-10-|----17---------15-13-12-|
|----5-------------|-18------5--------------|
|-2------5---------|------------5-----------|
|------------------|-----3------------------|
|------------------|------------------------|
|------------------|------------------------|
| Q  Q   H               Q   Q  H
|
| W                      W
|-5----------------|----17------------------|
|------------------|------------------------|
|-2----------------|----14------------------|
|------------------|------------------------|
|------------------|------------------------|
|------------------|------------------------|
|
| W                      W
|-5----------------|----17------------------|
|------------------|------------------------|
|-2----------------|----14------------------|
|------------------|------------------------|
|------------------|------------------------|
|------------------|------------------------|


  (Em)
    H.         Q      Q    Q  Q  Q
|--12---------10--|--12---13--8--7--|
|-----------------|-----------------|
|-------0---------|--------0--------|
|----------2------|-----------2-----|
|---3-------------|---2-------------|
|-----------------|-----------------|
|   Q   Q  H          Q    Q  H
|
|   H.         Q      Q    Q  Q  Q
|--12---------10--|--12---13--8--7--|
|-----------------|-----------------|
|---9-------------|-----------------|
|-----------------|-----------------|
|-----------------|-----------------|
|-----------------|-----------------|
|
|   W                +W
|-[17]------------|-(17)------------|
|--22-------------|-(22)------------|
|-----------------|-----------------|
|-----------------|-----------------|
|-----------------|-----------------|
|-----------------|-----------------|


  (A)                                         (Em)
                                    |--3--|
  H     +E  E E  E    a  H.         E  E  E     H.        Q      H      H
|-5-----(5)-7-8-10-|----17---------15-13-12-|--12---------8--|---8------7----|
|----5-------------|-18------5--------------|----------------|---------------|
|-2------5---------|------------5-----------|-------0--------|-------0-------|
|------------------|-----3------------------|----------2-----|----------2----|
|------------------|------------------------|---3------------|---2-----------|
|------------------|------------------------|----------------|---------------|
| Q  Q   H               Q   Q  H               Q   Q  H         Q   Q  H
|
| W                      W                      H.        Q      H      H
|-5----------------|----17------------------|--12---------8--|---8------7----|
|------------------|------------------------|----------------|---------------|
|-2----------------|----14------------------|---9------------|---------------|
|------------------|------------------------|----------------|---------------|
|------------------|------------------------|----------------|---------------|
|------------------|------------------------|----------------|---------------|
|
| W                      W                      W               +W
|-5----------------|----17------------------|-[17]-----------|-(17)----------|
|------------------|------------------------|--22------------|-(22)----------|
|-2----------------|----14------------------|----------------|---------------|
|------------------|------------------------|----------------|---------------|
|------------------|------------------------|----------------|---------------|
|------------------|------------------------|----------------|---------------|


  (A)
                                    |--3--|
  H     +E  E E  E    a  H.         E  E  E
|-5-----(5)-7-8-10-|----17---------15-13-12-|
|----5-------------|-18------5--------------|
|-2------5---------|------------5-----------|
|------------------|-----3------------------|
|------------------|------------------------|
|------------------|------------------------|
| Q  Q   H               Q   Q  H
|
| W                      W
|-5----------------|----17------------------|
|------------------|------------------------|
|-2----------------|----14------------------|
|------------------|------------------------|
|------------------|------------------------|
|------------------|------------------------|
|
| W                      W
|-5----------------|----17------------------|
|------------------|------------------------|
|-2----------------|----14------------------|
|------------------|------------------------|
|------------------|------------------------|
|------------------|------------------------|


  (Em)
    H.         Q      Q    Q  Q  Q
|--12---------10--|--12---13--8--7--|
|-----------------|-----------------|
|-------0---------|--------0--------|
|----------2------|-----------2-----|
|---3-------------|---2-------------|
|-----------------|-----------------|
|   Q   Q  H          Q    Q  H
|
|   H.         Q      Q    Q  Q  Q
|--12---------10--|--12---13--8--7--|
|-----------------|-----------------|
|---9-------------|-----------------|
|-----------------|-----------------|
|-----------------|-----------------|
|-----------------|-----------------|
|
|   W                +W
|-[17]------------|-(17)------------|
|--22-------------|-(22)------------|
|-----------------|-----------------|
|-----------------|-----------------|
|-----------------|-----------------|
|-----------------|-----------------|


  (A)                                         (Em)
                                    |--3--|
  H     +E  E E  E    a  H.         E  E  E     H.        Q      H      H
|-5-----(5)-7-8-10-|----17---------15-13-12-|--12---------8--|---8------7----||
|----5-------------|-18------5--------------|----------------|---------------||
|-2------5---------|------------5-----------|-------0--------|-------0-------||
|------------------|-----3------------------|----------2-----|----------2----||
|------------------|------------------------|---3------------|---2-----------||
|------------------|------------------------|----------------|---------------||
| Q  Q   H               Q   Q  H               Q   Q  H         Q   Q  H
|
| W                      W                      H.        Q      H      H
|-5----------------|----17------------------|--12---------8--|---8------7----||
|------------------|------------------------|----------------|---------------||
|-2----------------|----14------------------|---9------------|---------------||
|------------------|------------------------|----------------|---------------||
|------------------|------------------------|----------------|---------------||
|------------------|------------------------|----------------|---------------||
|
| W                      W                      W               +W
|-5----------------|----17------------------|-[17]-----------|-(17)----------||
|------------------|------------------------|--22------------|-(22)----------||
|-2----------------|----14------------------|----------------|---------------||
|------------------|------------------------|----------------|---------------||
|------------------|------------------------|----------------|---------------||
|------------------|------------------------|----------------|---------------||


 Outro
  Bbm
  Wx31
|---------*|
|---------*|
|---------*|
|---------*|
|---------*|
|---------*|


Duration Legend
---------------
W - whole; H - half; Q - quarter; E - 8th; S - 16th; T - 32nd; X - 64th; a - acciaccatura
+ - note tied to previous; . - note dotted; .. - note double dotted
Uncapitalized letters represent notes that are staccato (1/2 duration)
Irregular groupings are notated above the duration line
Duration letters will always appear directly above the note/fret number it represents the
duration for.  Duration letters with no fret number below them represent rests.  Multi-
bar rests are notated in the form Wxn, where n is the number of bars to rest for.  Low
melody durations appear below the staff

Tablature Legend
----------------
 h   - hammer-on
 p   - pull-off
 b   - bend
 pb  - pre-bend
 r   - bend release (if no number after the r, then release immediately)
 /\  - slide into or out of (from/to "nowhere")
 s   - legato slide
 S   - shift slide
  - natural harmonic
[n]  - artificial harmonic
n(n) - tapped harmonic
 ~   - vibrato
 tr  - trill
 T   - tap
 TP  - trem. picking
 PM  - palm muting
\n/  - tremolo bar dip; n = amount to dip
 \n  - tremolo bar down
 n/  - tremolo bar up
/n\  - tremolo bar inverted dip
 =   - hold bend; also acts as connecting device for hammers/pulls
 <>  - volume swell (louder/softer)
 x   - on rhythm slash represents muted slash
 o   - on rhythm slash represents single note slash

Misc Legend
-----------
 |  - bar
||  - double bar
||o - repeat start
o|| - repeat end
*|  - double bar (ending)
 :  - bar (freetime)
 $  - Segno
 &  - Coda
Tempo markers -  = BPM(8/16=s8/s16), where s8 = swing 8ths, s16 = swing 16ths


Suggest correction
Give kudos to tab author, rate the tab!
1 2 3 4 5
comments
print report bad tab
1 comment total.
+1 reply
123-Trav 30 Jan 05, 2009 07:27 PM

haha 'telephone arr. for guitar' that has made my day.

guest
You may want to rate the tab now too:
select rating
Wanna post a correction for this tab? Suggest correction