Oops, an error
Loading. Please wait.

Road And The Damned Tab

version 1
version 1

Whole song

2,460 views 1 this week
2 commentsread comments
1 2 3 4 5
x 4
add to favorites
launch autoscroll
font size
0
reset
how to read this tab
guitar tuner
Autoscroll
slow
fast
+/-
esc
set tempo
stop
Help us to improve Ultimate-Guitar.com Take our survey!
×
Difficulty
intermediate
Coheed and Cambria
"The End Complete IV - The Road and The Damned"
Standard Tuning

Tabbed by Larry Jones

I've known how to play this for awhile, but I finally got around to tabbing it and 
it because there weren't any great tabs for this track.
It's fairly close to perfect, the only thing I'm not sure on is the fill before the 
what I have is along the lines of what claudio does.
I compiled this from listening to the CD version and the live version from Neverender 
is played in e-flat).

Key:
/ - slide
. - palm mute
p - pull off
h - hammer on
~ - let ring
b - bend to sound like the following note
r - release bend

1st Verse: (0:00 - 0:23)
Claudio:
e-----------------------------------------|
B-----------------------------------------|
G-----2~------2~--------------------------|
D---0~--0~--0~--0~-------0~---------------|
A-2~------0~-----------5~--5~----/10-9-0--|
E------------------5/7~------7~-----------|

e------------------3~---------------------|
B------------------3~---------------------|
G-----2~------2~---0~---------------------|
D---0~--0~--0~--0~-0~---------------------|
A-2~------0~-------2~---------------------|
E------------------3~---------------------|

Alternate End w/ Fill Before Pre-Chorus
e------------------3~-------------------------------|
B------------------3~-------------------------------|
G-----2~------2~---0~-------------------------------|
D---0~--0~--0~--0~-0~-------------------------------|
A-2~------0~-------2~-------0h2p0---------0h2p0-----|
E------------------3~--0h2h3-----3p0-0h2h3-----3----|
                       .............................

Travis:
e-----------------------------------------|
B-----------------------------------------|
G-----------------------------------------|
D-777----777----444----5-4-2p0------------|
A-555----444----222-----------------------|
E-----------------------------------------|
  ...    ...    ...

e-----------------------------------------|
B-----------------------------------------|
G-----------------------------------------|
D-777----777-----------5-4-2p0------------|
A-555----444----5~------------------------|
E---------------3~------------------------|
  ...    ...

1st Pre-Chorus: (0:23 - 0:33)

Claudio:
e-----------------------------------------|
B-----------------------------------------|
G-----------------------------------------|
D--------------------5~-------------------|
A-2~-----------------3~-------------------|
E-0~--------------------------------------|

Travis:
e------------------------------------------------------------------------|
B---------------------8---7-----7-8---7-----7-8---7-----7-8---7-----7----|
G-----------------------9---7-9-----9---7-9-----9---7-9-----9---7-9------|
D-2-0-2/4/2-0-2-0--------------------------------------------------------|
A-----------------3-2----------------------------------------------------|
E------------------------------------------------------------------------|

1st Chorus: (0:33 - 0:54)
Claudio:
e-----------------------------------------|
B-----------------------------------------|
G-----------------------------------------|
D-7---------------------------------------|
A-5--------2--------5--------7------------|
E----------0--------3--------5------------| x2

Travis:
e-------------------------------------------|
B-/10-7-/10-7--10-8-7-----10-7-10b12--8-7---|
G---------------------9/------------------9-|
D-------------------------------------------|
A-------------------------------------------|
E-------------------------------------------|

e-------------------------------------------|
B-/10-7-/10-7--10-8-7-----8-7---------------|
G---------------------9/------9---7-9/11-9--|
D-------------------------------------------|
A-------------------------------------------|
E-------------------------------------------|

2nd Verse (0:54 - 1:15)

2nd Pre-Chorus: (1:15 - 1:35)

Claudio:
e----------------------------------------------|
B----------------------------------------------|
G----------------------------------------------|
D---------------------0~-----0~-----0~---0~----|
A-2~-------------------------------------------|
E-0~--------------5/7~--7~-5~--5~-3~-3~-2~-2~--|

e-----------------------------------------|
B-----------------------------------------|
G-----------------------------------------|
D--------------------5~-------------------|
A-2~-----------------3~-------------------|
E-0~--------------------------------------|

Travis:
e----------------------------------------------|
B----------------------5-7-8---7p5-7--5--------|
G---------------------------------------7------|
D-2-0-2/4/2-0-2-0------------------------------|
A-----------------3-2--------------------------|
E----------------------------------------------|

e-----------------------------------------------------10--12--15------|
B-8---7-----7-8---7-----7-8---7-----7-8---7-----7--8------------------|
G---9---7-9-----9---7-9-----9---7-9-----9---7-9-----------------------|
D---------------------------------------------------------------------|
A---------------------------------------------------------------------|
E---------------------------------------------------------------------|

2nd Chorus: (1:35 - 1:56)


Solo: (1:56 - 2:16)

Claudio: Chorus Chords

Travis:
e------10--------------------------------------------------------------------------------------|
B-10b12--12r10--8-7-7---7----------------------------------------------------------------------|
G---------------------9---7-9-9/11-9p7---7/----------------------------------------------------|
D--------------------------------------9-----/4-2-0-2-2/4-4p2p0-2------------------------------|
A----------------------------------------------------------------------------------------------|
E----------------------------------------------------------------------------------------------|

e------------10-----10-----10-----10-----10-----10-12b14-12-10-----10/-------------------------|
B-3/10--10h12--10h12--10h12--10h12--10h12--10h12---------------12----------------11------------|
G-----------------------------------------------------------------------11-12-14-----14-12-14--|
D----------------------------------------------------------------------------------------------|
A----------------------------------------------------------------------------------------------|
E----------------------------------------------------------------------------------------------|


Clean Interlude: (2:16 - 2:29) - Claudio Verse Riff
Outro Chorus: (2:29 - 3:10)
Outro (3:10 - 3:35) - Claudio Verse Riff
Suggest correction
comments
print report bad tab
2 comments total.
0 reply
jedzkie 16 Nov 27, 2009 10:43 PM

ughh why this tab doesnt have even a star,this is excellent!

0 reply
willingwellIV 57 Mar 27, 2010 11:19 PM

first off this tab is excellent..thank you much...only correction i see is in the solo, the last 7 notes are all down one string..you have it starting on the G string, where it should start on the the D string..Otherwise, perfect tab!! Thank you..BTW your End Complete tab was pretty excellent as well!

guest
You may want to rate the tab now too:
select rating
Wanna post a correction for this tab? Suggest correction