Oops, an error
Loading. Please wait.

Running Free Tab

version 1
version 1

Whole song

15,296 views 1 this week
22 commentsread comments
1 2 3 4 5
accurate
x 12
add to favorites
launch autoscroll
font size
0
reset
how to read this tab
guitar tuner
Tab Pro tools
  • play this tab
  • loop segment
  • change instrument
  • show fretboard
  • metronome
×
Best way to learn
"Running Free"
Autoscroll
slow
fast
+/-
esc
set tempo
stop
Contributor
Difficulty
intermediate
Intro Part 1: Guitar I: x2

[---------------------------------------------------------------------------|
[---------------------------------------------------------------------------|
[---------------------------------------------------------------------------|
[10-9 7 12 10 9 10-----10-9 7 12 10 9 10------------------------------------|
[0--0-0-0--0--0--0-------0-0-0---0-0-0-0------------------------------------|
[---------------------------------------------------------------------------|

Intro Part 2: Guitar I: x2

[---------------------------------------------------------------------------|
[---------------------------------------------------------------------------|
[---------------------------------------------------------------------------|
[10-9-7-12-10-9-10--x---10-9-7-10-9---0-------------------------------------|
[0--0-0--0--0-0--0--x---0--0-0--0-0---0-------------------------------------|
[-------------------x-----------------0-------------------------------------|

Verse: Guitar I: x3

[---------------------------------------------------------------------------|
[---------------------------------------------------------------------------|
[---------------------------------------------------------------------------|
[10-9-7-12-10-9-10---x-----10-9-7-10-9---0----------------------------------|
[-0-0-0--0--0--0-0---x-----0--0-0--0-0---0----------------------------------|
[--------------------x-------------------0----------------------------------|

[---------------------------------------------------------------------------|
[---------------------------------------------------------------------------|
[---------------------------------------------------------------------------|
[10-9-7-12-10-9-10---x---10-9-7-10-9---0------------------------------------|
[0--0-0--0--0-0--0---x---0--0-0-0--0---0------------------------------------|
[--------------------x-----------------0------------------------------------|

Guitar 2: End Of Verse + Pre-Chorus. (Check Song For Timings)
[---------------------------------------------------------------------------|
[5~~~-8---5~~------8---5~~---8---6---5--------------------------------------|
[-------------------5----------5-------------------7------------------------|
[-----------------------------------------------------7---5---7-------------|
[----------------------------------------------------------------8/10--8--7-|
[---------------------------------------------------------------------------|


Pre-Chorus: (Come So Far From Inocence…)Guitar 1
[---------------------------------------------------------------------------|
[---------------------------------------------------------------------------|
[---------------------------------------------------------------------------|
[10-------------------------------------------------------------------------|
[8--x16---------9-----------7----------3------------------------------------|
[---------------7--x16------5--x16-----1--x16-------------------------------|

Chorus: Guitar 1:
[---------------------------------------------------------------------------|
[---------------------------------------------------------------------------|
[---------------------------------------------------------------------------|
[5--------------------------------------------------------------------------|
[3 x16----5------------7------------3---------------------------------------|
[---------3 x16--------5 x16--------1 x16-----------------------------------|

Guitar 2:
[----------------------------------------------------------------------------|
[------------------13---12------12----13-----12----------12--13-----12-------|
[--------------------14---12—-14---------14-----12--14--------14----12-14-12-|
[5---------------------------------------------------------------------------|
[3 x16----5------------------------------------------------------------------|
[---------3 x16--------------------------------------------------------------|


Guitar 1:
[---------------------------------------------------------------------------|
[---------------------------------------------------------------------------|
[---------------------------------------------------------------------------|
[5--------------------------------------------------------------------------|
[3 x16----5------------7------------3---------------------------------------|
[---------3 x16--------5 x16--------1 x16-----------------------------------|

Guitar 2:
[---------------------------------------------------------------------------|
[---6----5----------------- 13----12-------12--13--12------12-13--12--------|
[5~--------------------------14----12---14-------14---12-14----14--12-14-12-|
[--------5--0--0h2---0---2--------------------------------------------------|
[---------------------------------------------------------------------------|
[---------------------------------------------------------------------------|

Pre-Verse: Guitar 1: x2
[---------------------------------------------------------------------------|
[---------------------------------------------------------------------------|
[---------------------------------------------------------------------------|
[---------------------------------------------------------------------------|
[7----5---7---8~~~---8---7---10-10-10-10-10--------------9-9-9-9-9----------|
[5----------------------------8--8--8---8---8----8---10--7-7-7-7-7----------|

Bridge: Guitar 1: Muted.
[---------------------------------------------------------------------------|
[---------------------------------------------------------------------------|
[---------------------------------------------------------------------------|
[---------------------------------------------------------------------------|
[7-7-7-7-7-7----5---7---8-8-8-8-8-8-8----8---7--10-10-10-10-10--------9-----|
[5-5 5-5-5-5-------------------------------------8--8--8--8--8--8--10-7-x8--|

Guitar 2: x4

[5---3------------------------------5---3-----------------------------------|
[--5---3--5----5---3----------------5----3---5----5---3---------------------|
[-------------5--------5--4----------------------5---------5---4------------|
[---------------------------------------------------------------------------|
[---------------------------------------------------------------------------|
[---------------------------------------------------------------------------|

Out Chorus: Part 1: Guitar 1+2:

[---------------------------------------------------------------------------|
[---------------------------------------------------------------------------|
[---------------------------------------------------------------------------|
[5--------------------------------------------------------------------------|
[3 (ring)----5------------7------------3------------------------------------|
[------------3 (ring)-----5 x16-----=--1 x16-(mute last 8)------------------|

Guitar 1:
[---------------------------------------------------------------------------|
[---------------------------------------------------------------------------|
[---------------------------------------------------------------------------|
[5--------------------------------------------------------------------------|
[3 x16----5------------7------------3---------------------------------------|
[---------3 x16--------5 x16--------1 x16-----------------------------------|

Guitar 2:
[---------------------------------------------------------------------------|
[---6----5----------------- 13----12-------12--13--12------12-13--12--------|
[5~--------------------------14----12---14-------14---12-14----14--12-14-12-|
[--------5--0--0h2---0---2--------------------------------------------------|
[---------------------------------------------------------------------------|
[---------------------------------------------------------------------------|

Out Chorus Part 2:

Guitar 1:
[----------------------------------------------------------------------------|
[----------------------------------------------------------------------------|
[----------------------------------------------------------------------------|
[5---------------------------------------------------------------------------|
[3 x16----5------------7------------3----------------------------------------|
[---------3 x16--------5 x16--------1 x16------------------------------------|

Guitar 2:
[---------------------------------------------------------------------------|
[---6----5----------------- 13----12-------12--13--12------12-13--12--------|
[5~--------------------------14----12---14-------14---12-14----14--12-14-12-|
[--------5--0--0h2---0---2--------------------------------------------------|
[---------------------------------------------------------------------------|
[---------------------------------------------------------------------------|

Outro: Guitar 1: x2
[---------------------------------------------------------------------------|
[---------------------------------------------------------------------------|
[---------------------------------------------------------------------------|
[---------------------------------------------------------------------------|
[7----5---7---8~~~---8---7---10-10-10-10-10--------------9-9-9-9-9----------|
[5----------------------------8--8--8---8---8----8---1--7-7-7-7-7-----------|

[----------------------------------------------------------------------------|
[----------------------------------------------------------------------------|
[----------------------------------------------------------------------------|
[----------------------------------------------------------------------------|
[7----5---7---8~--8---7--10-10-10-10-10----------9-9-9-9-9----7-------7------|
[5-----------------------8--8--8---8---8---8--10--7-7-7-7-7---5-------5~~----|
comments
print report bad tab
22 comments total. Showing first comments.
0 reply
NewoIkkin123 wrote on September 4 2007, 02:55 pm

if you like this tab i apprciate comments or add my msn
oli_bell0104@hotmail.co.uk
for queries or if a bits wrong
i made a few type os at the bottom, so try to get the correct bit from above
cheers
oli

+1 reply
BBradyo wrote on September 5 2007, 07:26 pm

It's a good attempt, and some of it is alright, but there are a lot of things that need to be fixed, especially the guitar 2 chorus part.

0 reply
Tasman wrote on September 14 2007, 05:06 am

Bad

I want to post or [tab]
guest
You may want to rate the tab now too:
select rating
Please do not post tabs as comments. Select "correction" instead!