Oops, an error
Loading. Please wait.

Sentry The Defiant Tab

version 1
version 1

Whole song

Interactive

38,495 views 36 this week
5 commentsread comments
1 2 3 4 5
x 16
add to favorites
launch autoscroll
font size
0
reset
how to read this tab
guitar tuner
×
Best way to learn
"Sentry The Defiant"
Autoscroll
slow
fast
+/-
esc
set tempo
stop
-------------------------------------------------------------------------------
                                      Sentry the Defiant - Coheed and Cambria
-------------------------------------------------------------------------------
Tabbed by:TLO4SHEELO

Tuning:B-tuning(BEADF#b)

[Intro]
e|--------7---------------------7--------------------------------------------|
B|------5---5------8-7b-------5---5------8-7b--------------------------------|
G|----4----------5----------4----------5-------------------------------------|
D|---------------------------------------------------------------------------|
A|---------------------------------------------------------------------------|
E|-0----------------------0--------------------------------------------------|

[Pre-Verse]
e|---------------------------------------------------------------------------|
B|---------------------------------------------------------------------------|
G|-9------------------------------9------------------------------------------|
D|-9--2--9---10--7--7--10--3------9--2--9---10--7--7--10--3------------------|
A|-7--2--10--10--7--7--10--3------7--2--10--10--7--7--10--3------------------|
E|----0------8---5--5--8---1---------0------8---5--5--8---1------------------|

[Verse]
[palm mute]
e|---------------------------|-----------------------------------------------|
B|---------------------------|-----------------------------------------------|
G|-9-------------------------|-----------------------------------------------|
D|-9--2--9---10--7--7--10--3-|-----------------------------------------------|
A|-7--2--10--10--7--7--10--3-|---x4------------------------------------------|
E|----0------8---5--5--8---1-|-----------------------------------------------|

[Chorus]
e|---------------------------------------------------------------------------|
B|---------------------------------------------------------------------------|
G|----5-----------------------------5-----5-------5--------------5-----------|
D|-2--5--7--------5--------------2--5--7--5----2--5--7--10----2--5--7--7-----|
A|-2--3--7----------3p2-3p2p0----2--3--7--3----2--3--7--10----2--3--7--7-----|
E|-0-----5--5-3-3----------------0-----5-------0-----5--8-----0-----5--5-----|

[Pre-Verse]

[Verse] 
[palm mute]

[Chorus]

[Bridge]
e|---------|----------------------------------|------------------------------|
B|---------|----------------------------------|------------------------------|
G|---------|----------------------------------|--------5---------------------|
D|-10--3---|-9---------9---------9------------|-x2-----5--7--2---------------|
A|-10--3---|-7--9--10--7--9--10--7--9--10--7--|--------3--7--2---------------|
E|-8---1---|----10--8-----10--8-----10--8--5--|-----------5--0---------------|
(ohh im alive..)                                     (goodbye...)

[Intro]

[Pre-Verse]

[Chorus]

[Verse]
End on C in last progression, which would be G in this tuning.

*could not figure out the breakdown so I left it out. It comes between the 2nd 
chorus and the bridge.


************************************

| b  Bend
| x  Dead note
| p  Pull-off

************************************
Suggest correction
comments
print report bad tab
5 comments total. Showing first comments.
0 reply
RackAttacks 10 Jun 22, 2012 06:12 AM

I'm pretty sure the bridge part is

----------------------------------
----------------------------------
----------------------------------
-------------2--------------------
--3-2-0-2--5----2-3--3-2-0--------
0---------------------------------

+1 reply
InsaneAss 10 Mar 22, 2013 06:16 PM

I don't understand how this gets 4 stars when even the intro is obviously wrong. I don't know how you possibly think the 4th note of the song is higher than the 3rd note.

I'm voting this 1 star just to even things out. You must have multiple accounts voting on this or something. I don't expect 4 star tabs to be wrong on single note intros.

0 reply
mrdellano 10 Nov 09, 2013 07:33 AM

this is the bridge:

-------------------------------------------
-------------------------------------------
-------------------------------------------
-------------------------------------------
---3-2-0----7---5---7---0--3----3-2-0------
0--------0----0---0---0------0-------------


you're welcome!

(InsaneAss-- that beginning seems fine to me. Check your tuning!)

guest
You may want to rate the tab now too:
select rating
Wanna post a correction for this tab? Suggest correction