Oops, an error
Loading. Please wait.

Shabutie - Godfathers Lollipop Bass Tab

1,006 views 1 this week
no commentswrite comment
1 2 3 4 5
please rate
add to favorites
launch autoscroll
font size
0
reset
guitar tuner
Autoscroll
slow
fast
+/-
esc
set tempo
stop
Help us to improve Ultimate-Guitar.com Take our survey!
×
----------------------------------------------------------------------------
		godfathers lolipop - coheed and cambria                    
-----------------------------------------------------------------------------

Tabbed By : justin frost
e-mail: doomtrain91@yahoo.com

Tuning: standard


                PART 1
G|----------------------------------------------------------------------|
D|----------------------------------------------------------------------|
A|--4-4-4~----4-4-4~----4-4-4~----4-4-4~--------------------------------|X2
E|-0---------0---------0---------0--------------------------------------|
                PART 2 
G|----------------------------------------------------------------------|
D|-----------4----------4-----------------------------------------------|
A|-44--7-6-4---2--4-6-7---7---------------------------------------------|X1
E|----------------------------------------------------------------------|
                Part 3
G|----------------------------------------------------------------------|
D|----------------------------------------------------------------------|
A|----------------------------------------------------------------------|X1
E|-33--33--33--33--33--33--33--33--33--33--33--33--33--33--33--33-------|
                PART 4  
G|----------------------------------------------------------------------|
D|-----4---4------------------------------------------------------------|
A|----------------------------------------------------------------------|X10
E|-3h4---4---3h4-3h4-3h4-3h4--------------------------------------------|
                PART 5
G|----------------------------------------------------------------------|
D|----------------------------------------------------------------------|
A|--------------rest--------------------rest----------------------------|X2
E|-1--1--1---------------1--1--1----------------------------------------|
                PART 6
G|----------------------------------------------------------------------|
D|----------------------------------------------------------------------|
A|----------------------------------------------------------------------|X1
E|-1-1-1-1-1-1-1-1-1-0~-------------------------------------------------|
                PART 7
G|----------------------------------------------------------------------|
D|----------------------------------------------------------------------|
A|-3-4-9-9----3-4-9-9----3-4-9-9----3-4-9-9-----------------------------|X2
E|----------------------------------------------------------------------|
                PART 8
G|----------------------------------------------------------------------|
D|----------------------------------------------------------------------|
A|----------------------------------------------------------------------|X8
E|-444444--777777--000000--000000-444444--777777--000000--000000--------|
                PART 9
G|----------------------------------------------------------------------|
D|----------------------------------------------------------------------|
A|-----------------333333--333333------------------444444--444444-------|X4
E|-444444--444444------------------111111--111111-----------------------|
                PART 10
G|----------------------------------------------------------------------|
D|----------------------------------------------------------------------|
A|---------333333-------------------------------------------------------|X4
E|-444444----------111111--111111---------------------------------------|
                PART 11
G|----------------------------------------------------------------------|
D|----------------------------------------------------------------------|
A|-555555555555----------------000000000000-----------------------------|X4
E|---------------666666666666----------------5-7-5--3-5-3---------------|
 END ON
G|----|
D|----|
A|----|
E|-4~-|

| /  slide up
| \  slide down
| h  hammer-on
| p  pull-off
| ~  vibrato
| +  harmonic
| x  Mute note
============================================================================
Suggest correction
Give kudos to tab author, rate the tab!
1 2 3 4 5
comments
print report bad tab
guest
You may want to rate the tab now too:
select rating
Wanna post a correction for this tab? Suggest correction