Oops, an error
Loading. Please wait.

Shabutie - Goodnight Bass Tab

version 1
version 1

Whole song

Interactive

355 views 1 this week
1 commentread comment
1 2 3 4 5
x 3
add to favorites
launch autoscroll
font size
0
reset
guitar tuner
Autoscroll
slow
fast
+/-
esc
set tempo
stop
Help us to improve Ultimate-Guitar.com Take our survey!
×
Author
Difficulty
intermediate
-------------------------------------------------------------------------------
			    GOODNIGHT - Shabutie (Coheed And Cambria)
-------------------------------------------------------------------------------

Tabbed By : No Prying Eyes
e-mail: sbrowne@rlstvenson.org

Tuning: Standard

lr=let ring

intro:
G|--------------|
D|--------------|
A|---6----------|
E|-6------------|

verse:
G|------------------------------------------------------------------------------------|
D|------------------------------------------------------------------------------------|
A|-6lr--6-5lr-------------------------------------------------------------------------|
E|-----------6-6----------------------------------------------------------------------|

chorus:
G|-------------------------------------|
D|-------6-------6-------6-------6-----|
A|-----6-------6-------6-------6-------|
E|-4-4-----4-4-----4-4-----4-4---------|

G|-----8---------------------8-8-8------------------------------------|
D|---8---8---8-8-8----8-8-8--------8-------------6--------------------|
A|-6---------------6------------------6---------6---6-----------------|
E|---------------------------------------------4-------------6lr------|

verse 2:
G|----------------------------------------------------------------------|
D|-----8-----------8----------8----8------------------------------------|
A|-6-6---6---6-6-6---6---5-5-----5--5-----------------------------------|
E|------------------------------6------6--------------------------------|

second chorus is the same but ends like this:

G|----------|
D|----------|
A|----------|
E|-4--3--1--|

bridge:
G|--------------------------------------------------------------------------|
D|--------------------------------------------------------------------------|
A|------------------8-8-8-8-10-10-10--6-6-6-6-6-6-6-6-5-5-5-3-3-3-3-3-------| 4x
E|-6-6-6-5-5-5-5-5----------------------------------------------------------|

bass stops and comes back at 1:59 with...
G|-------------------------------------------------------------------------|
D|-------------------------------------------------------------------------|
A|-8-8-8-10-10-10-5-5-5-5-5-5-5-5-5--4-4-4-3-3-3---------------------------|
E|-------------------------------------------------6-6-6-66--------3-0-4---|

G|------------------------------------------|
D|------4---4-------------------------------|
A|----4---4---4------------------4lr--------|
E|-2lr---------------6-6-6-4-4-4------------|

G|-----------------------------------------------------------|
D|-----------------------------------------------------------|
A|-8-8-8-10-10-10-5-5-5-5-5-5-5-5-5-5------------------------|
E|-----------------------------------------------------------|

G|-----------------------------------------------------------|
D|-----------------------------------------------------------|
A|-4-4-4-3-3-3-----------------------------------------------|
E|--------------6-6-6-6-6-6-6-6-6-6----3-0-4-----2lr---------|

G|------------------------------------------------------------|
D|------------------------------------------------------------|
A|-------------4lr--------------------------------------------|
E|-6-6-6-4-4-4------------------------------------------------|

G|-----------------------------------------------------------|
D|-----------------------------------------------------------|
A|-8-8-8-10-10-10-5-5-5-5-5-5-5-5-5-5------------------------|
E|-----------------------------------------------------------|

G|-----------------------------------------------------------|
D|-----------------------------------------------------------|
A|-4-4-4-3-3-3-----------------------------------------------|
E|--------------6-6-6-6-6-6-6-6-6-6----3-0-4-----2lr---------|

repeat verse 1

verse 2 again:
G|----------------------------------------------------------------------|
D|-----8-----------8----------8----8------------------------------------|
A|-6-6---6---6-6-6---6---5-5-----5--5-----------------------------------|
E|------------------------------6------6--------------------------------|

repeat chorus with second ending:
G|----------|
D|----------|
A|----------|
E|-4--3--1--|

and repeat bridge again:
G|--------------------------------------------------------------------------|
D|--------------------------------------------------------------------------|
A|------------------8-8-8-8-10-10-10--6-6-6-6-6-6-6-6-5-5-5-3-3-3-3-3-------| 4x
E|-6-6-6-5-5-5-5-5----------------------------------------------------------|

but on fourth time just end on:

G|--------------|
D|--------------|
A|--------------|
E|----6lr-------|


pretty solid tab i think. rate it to let me know what you think.

| /  slide up
| \  slide down
| h  hammer-on
| p  pull-off
| ~  vibrato
| +  harmonic
| x  Mute note
===============================================================================
Suggest correction
Give kudos to tab author, rate the tab!
1 2 3 4 5
comments
print report bad tab
1 comment total.
0 reply
SoftParade1967 502 Sep 01, 2008 12:45 PM

Its good man but its in flat tuning not standerd. Great tab besides that! 5*

guest
You may want to rate the tab now too:
select rating
Wanna post a correction for this tab? Suggest correction