Oops, an error
Loading. Please wait.

Shabutie - Strung Short Tab

3,584 views 1 this week
6 commentsread comments
1 2 3 4 5
x 4
add to favorites
launch autoscroll
font size
0
reset
how to read this tab
guitar tuner
Autoscroll
slow
fast
+/-
esc
set tempo
stop
Help us to improve Ultimate-Guitar.com Take our survey!
×
Author
Difficulty
intermediate
-------------------------------------------------------------------------------
                                 Shabutie - Strung Short
-------------------------------------------------------------------------------
Tabbed by: Marleyo
Email: number5withabullet@comcast.net

Tuning: Standard

This is my first tab. I did the best i could considering im 
mainly a drummer. Its only the rhythm guitar, sorry. Hopefully 
someone can tab the solo to it because i sure as hell cant.

The only part im really if-y on is the pre-chorus. Not perfect 
but i think its close. Also, i did a cover of this on youtube. 
i tried to stay as close to the tab as possible. http://www.youtube.com/watch?v=2-a-o4Q8ueQ

peacxe.

Intro
e|------------------------------------------------------------|
B|-------------------------------------------3-0--------------|
G|-------------------------------------------0-0--------5-----|
D|---------5---.-------.-.----.-.--2x------2------------2--2x-|
A|-0-0h2h3-----7-7\5---3-3--3-3-3------2h3--------0h2h3-3-----|
E|-----------0-5-5\3-0-1-1--0-1-1-----------------------------|

 
Verse
"A terrible silence..."
e|-----------------------------------|
B|-----------------------------------|
G|-----------------------------------|
D|---------5---.-------.-.----.-.--4x|
A|-0-0h2h3-----7-7\5---3-3--3-3-3----|
E|-----------0-5-5\3-0-1-1--0-1-1----|


Pre-Chorus
"Well I'm a snake..."
e|-------------------------|
B|-------3-0---------------|
G|-------0-0--------5~-----|
D|-----2------------2~--2x-|
A|-2h3--------0h2h3-3~-----|
E|-------------------------|


Chorus
"And I'm a hard on..."
e|-------------------------------------------------------------------------|
B|------5+5+------5+5+-----------------------------------------------------|
G|-5-5--5+5+5+5+--5+5+--4-44-4-4-------------------------------------------|
D|-5-5------5+5+5+5+5+--4-44-4-4--3~---------------------------------------|
A|-3-3----------5+5+5+--2-22-2-2--3~---5-----3-----------------------------|
E|--------------------------------1~---2---2-1-----------------------------|
                                          PM 
 
"My hideout is broken..."
e|-------0---------0-------------------|
B|-x-x---1----1----1-----1-------------|
G|-x-x---0-----0---2------2---3---2~---|
D|-x-x---2--0---2--2---2------3---3~---|
A|-x-x---3---------0--0----------------|
E|-------------------------------------|


Bridge
"But I'm a bastard."
e|-----------------------------------|
B|-----------------------------------|
G|-----------------------------------|
D|---------5---.-------.-.----.-.--4x|
A|-0-0h2h3-----7-7\5---3-3--3-3-3----|
E|-----------0-5-5\3-0-1-1--0-1-1----|


Verse
"I see myself..."
e|------------------------------------|
B|------------------------------------|
G|------------------------------------|
D|---------5---.-------.-.----.-.--4x-|
A|-0-0h2h3-----7-7\5---3-3--3-3-3-----|
E|-----------0-5-5\3-0-1-1--0-1-1-----|


Pre-Chorus
"Well I'm a snake..."
e|-------------------------|
B|-------3-0---------------|
G|-------0-0--------5~-----|
D|-----2------------2~--2x-|
A|-2h3--------0h2h3-3~-----|
E|-------------------------|


Chorus
"And I'm a hard on..."
e|-------------------------------------------------------------------------|
B|------5+5+5+~------------------------------------------------------------|
G|-5-5--5+5+5+5+~--4-44-4-4------------------------------------------------|
D|-5-5------5+5+~--4-44-4-4--3~--------------------------------------------|
A|-3-3------------ 2-22-2-2--3~---5-----3----------------------------------|
E|---------------------------1~---2---2-1----------------------------------|
                                     PM  

Solo 
e|-------------------------------------------------------------------------|
B|-------------------------------------------------------------------------|
G|-------------------------------------------------------------------------|
D|----------------------------------lol------------------------------------|
A|-------------------------------------------------------------------------|
E|-------------------------------------------------------------------------|


Solo (Rhythm)
e|-----------------------------------------------------|
B|-----------------------------------------------------|
G|-----------------------------------------------------|
D|---------------------------------------.----.-----3x-|
A|-7-7-77-7--9-9-99-9--10-10--1010-10--3-3--3-3--------|
E|-5-5-55-5--7-7-77-7--8--8---8-8--8---1-1--1-1--------|

e|-------------------------------------------------------------------------|
B|-------------------------------------------------------------------------|
G|-------------------------------------------------------------------------|
D|-------------------------------------------------------------------------|
A|-7-7-77-7--9-9-99-9--10-10--1010-10--------------------------------------|
E|-5-5-55-5--7-7-77-7--8--8---8-8--8---------------------------------------|

e|------------------------------------------------|
B|------------------------------------------------|
G|-----------------------------------------5~-----|
D|---.----.----.----.----.----.----.----.--5~-----|
A|-3-3--3-3--3-3--3-3--2-2--2-2--2-2--2-2--3~-----|
E|-1-1--1-1--1-1--1-1--0-0--0-0--0-0--0-0---------|


Bridge
"And I'm a bastard..."
e|-----------------------------------|
B|-----------------------------------|
G|-----------------------------------|
D|---------5---.-------.-.----.-.--4x|
A|-0-0h2h3-----7-7\5---3-3--3-3-3----|
E|-----------0-5-5\3-0-1-1--0-1-1----|


Chorus
"And I'm a hard on..."
e|-------------------------------------------------------------------------|
B|------5+5+~--------------------------------------------------------------|
G|-5-5--5+5+~---4-44-4-4---------------------------------------------------|
D|-5-5----------4-44-4-4--3~-----------------------------------------------|
A|-3-3----------2-22-2-2--3~---5-----3-------------------------------------|
E|------------------------1~---2---2-1-------------------------------------|
                                  PM  

Outro
"My hideout is broken..."
e|-------0---------0--------------------|
B|-x-x---1----1----1-----1--------------|
G|-x-x---0-----0---2------2---3---2~----|
D|-x-x---2--0---2--2---2------3---3~----|
A|-x-x---3---------0--0-----------------|
E|--------------------------------------|


| /  slide up 
| \  slide down
| h  hammer-on
| p  pull-off
| ~  let ring
| +  harmonic
| x  Mute note
| .  Staccato
| PM Palm Mute
Suggest correction
comments
print report bad tab
6 comments total. Showing first comments.
+1 reply
Geothermal 10 May 31, 2008 08:47 AM

Bravo sir, im gunna look over this and try to figure out the bass for myself, but thankyou for posting it, it's also my favourite Shabutie song :D

+1 reply
minnaow 41 Jun 15, 2008 12:14 PM

Thanks, really appreciate it. Please someone tab the solo, it's too hard for me to hear it all...

0 reply
andrew12398 286 Jul 08, 2008 01:53 PM

You're missing a part at "Well I'm a snake" incase you can't hear it. I don't agree with everything on the tab but it's pretty good nonetheless.

guest
You may want to rate the tab now too:
select rating
Wanna post a correction for this tab? Suggest correction