Oops, an error
Loading. Please wait.

Shameless Tab

809 views 1 this week
no commentswrite comment
1 2 3 4 5
x 3
add to favorites
launch autoscroll
font size
0
reset
how to read this tab
guitar tuner
Autoscroll
slow
fast
+/-
esc
set tempo
stop
Help us to improve Ultimate-Guitar.com Take our survey!
×
Author
Tabbers playing skills
advanced +
By-Francis
Location - Carmelite, Lucena City
Cp #- 09109712432
E-add- f_sario@yahoo.com  (friendster)add me!
School- Sacred Heart College


tuning : E Flat


riff 1:
|---------------------------------|
|---------------------------------|
|-------------------------7-7-7-7-|
|-------------------------7-7-7-7-|
|-4-4-4-x-x---4-4-4-x-x---5-5-5-5-|
|-2-2-2-x-x-0-2-2-2-x-x-0---------|

riff 2:
|-----------------------------------|
|-----------------------------------|
|-----------------------------------|
|-----------------------------------|
|-4-4-4-2-2-2-4-4-4-5-5-5-5-5-5-5-5-|
|-2-2-2-0-0-0-2-2-2-3-3-3-3-3-3-3-3-|

riff 3: chorus
|-----------------------------------------------------------------|
|-----------------------------------------------------------------|
|-7-7-7-7-7-7-7-7-7-7-7-7-7-7-7-7---------------------------------|
|-7-7-7-7-7-7-7-7-7-7-7-7-7-7-7-7-7-7-7-7-7-7-7-7-7-7-7-7-7-7-7-7-|
|-5-5-5-5-5-5-5-5-5-5-5-5-5-5-5-5-7-7-7-7-7-7-7-7-7-7-7-7-7-7-7-7-|
|---------------------------------5-5-5-5-5-5-5-5-5-5-5-5-5-5-5-5-|
then
|-----------------------------------------------------------------|
|-----------------------------------------------------------------|
|-9-9-9-9-9-9-9-9-9-9-9-9-9-9-9-9-------------------------7-7-7-7-|
|-9-9-9-9-9-9-9-9-9-9-9-9-9-9-9-9-------------------------7-7-7-7-|
|-7-7-7-7-7-7-7-7-7-7-7-7-7-7-7-7-4-4-4-x-x---4-4-4-x-x---5-5-5-5-|
|---------------------------------2-2-2-x-x-0-2-2-2-x-x-0---------|

riff 4:
|---------------------------------|
|---------------------------------|
|---------------------------------|
|-------------------x-x-x-x-x-x-x-|
|-4-4---2-2---4-4---x-x-x-x-x-x-x-|
|-2-2---0-0---2-2---x-x-x-x-x-x-x-|

riff 5: after the feedback and wierd effects
|-----------------------------------------------------------------|
|-----------------------------------------------------------------|
|---------------------------------------------------5-5-5-5-5-5-5-|
|---------------------------------------------------5-5-5-5-5-5-5-|
|---4-4-4-4-5-2-----4---4-4-5-0-----4-4-4-4-5-2-----3-3-3-3-3-3-3-|
|-0-2-2-2-2-3-0---0-2---2-2-3-0---0-2-2-2-2-3-0---0---------------|

end of last chorus:
|-----------------------------------------------------------------|
|-----------------------------------------------------------------|
|-----------------------------------------------------------------|
|---------------------------------------------------------3-------|
|-4---2---4-------4---2---4-------4---2---4-------4---2---3-------|
|-2---0---2-------2---0---2-------2---0---2-------2---0---1-------|

the finale:
|-15---17------------15---17----------------|
|-----------13-----------------13--12-------|
|-------------------------------------------|
|-------------------------------------------|
|-------------------------------------------|
|-------------------------------------------|
Suggest correction
Give kudos to tab author, rate the tab!
1 2 3 4 5
comments
print report bad tab
guest
You may want to rate the tab now too:
select rating
Wanna post a correction for this tab? Suggest correction