Oops, an error
Loading. Please wait.

Some Kinda Hate Live Tab

226 views 1 this week
1 commentread comment
1 2 3 4 5
please rate
add to favorites
launch autoscroll
font size
0
reset
how to read this tab
guitar tuner
Autoscroll
slow
fast
+/-
esc
set tempo
stop
Help us to improve Ultimate-Guitar.com Take our survey!
×
Author
Difficulty
Artist: Coheed and Cambria
Track: "Some Kinda Hate Live" (Misfits Cover)
As played live on: 2011 SSTB Anniversary Tour
Tuning: Standard
v 1.0

Tabbed by Larry Jones

Claudio has played this Misfits cover on the 2011 SSTB Anniversary
Tour several times for Black Card holders. I watched two live videos
to get the proper notes and hand positioning, as shown below.

Live in Nashville, TN:
http://www.youtube.com/watch?v=CAnWvNmQv9E

Live in St. Louis, MO:
http://www.youtube.com/watch?v=wB4D4p-8O5M&feature=related

Key:
/ - slide
. - palm mute
p - pull off
h - hammer on
~ - let ring
b - bend to sound like the following note
r - release bend
* - natural harmonic
v - vibrato

Intro/Main Theme I:

Claudio Main Theme I: x 1

e------------------------------------------------------------------|
B------------------------------------------------------------------|
G------------------------------------------------------------------|
D-2-2-x-2-2-2-x-2-2-2-x-2-2-2-0-0-2-2-x-2-2-2-x-2-2-2-x-2-2-2-0-0--|
A-3-3-x-3-3-3-x-3-3-3-x-3-3-3-2-2-0-0-x-0-0-0-x-0-0-0-x-0-0-0-2-2--|
E------------------------------------------------------------------|

e------------------------------------------------------------------|
B------------------------------------------------------------------|
G--------------------------------------------/4-4-4-4-4-4-4-4-0----|
D-2-2-x-2-2-2-x-2-2-2-x-2-2-2-0-0-2-2-x-2-2-0-------------------2--|
A-3-3-x-3-3-3-x-3-3-3-x-3-3-3-2-2-0-0-x-0-0-0----------------------|
E------------------------------------------------------------------|


1st Verse:

Claudio Verse Riff: x 1

e------------------------------------------------------------------|
B------------------------------------------------------------------|
G------------------------------------------------------------------|
D-2-2-x-2-2-2-x-2-2-2-x-2-2-2-0-0-2-2-x-2-2-2-x-2-2-2-x-2-2-2-0-0--|
A-3-3-x-3-3-3-x-3-3-3-x-3-3-3-2-2-0-0-x-0-0-0-x-0-0-0-x-0-0-0-2-2--|
E------------------------------------------------------------------|

e------------------------------------------------------------------|
B------------------------------------------------------------------|
G------------------------------------------------------------------|
D-2-2-x-2-2-2-x-2-2-2-x-2-2-2-0-0-2-2-x-2-2-2-x-2-2-2-x-2-2-2------|
A-3-3-x-3-3-3-x-3-3-3-x-3-3-3-2-2-0-0-x-0-0-0-x-0-0-0-x-0-0-0-0-0--|
E-------------------------------------------------------------0-0--|

1st Chorus: 

Claudio Chorus Chords: x 1

e----------------------------------|
B----------------------------------|
G----------------------------------|
D----------------------------------|
A-3-3-3-3-3-3-3-3-5-5-5-5-5-5-5-5--|
E-1-1-1-1-1-1-1-1-3-3-3-3-3-3-3-3--|

e----------------------------------|
B----------------------------------|
G----------------------------------|
D----------------------------------|
A-3-3-3-3-3-3-3-3-5-5-5-5-5-5-5-5--|
E-1-1-1-1-1-1-1-1-3-3-3-3-3-3-3-3--|

e----------------------------------|
B----------------------------------|
G----------------------------------|
D----------------------------------|
A-3-3-3-3-3-3-3-3-5-5-5-5-5-5-5-5--|
E-1-1-1-1-1-1-1-1-3-3-3-3-3-3-3-3--|

e----------------------------------|
B----------------------------------|
G----------------------------------|
D----------------------------------|
A-3~--x-x-x-x-x-x-5~--X-x-x-x-x-x--|
E-1~--x-x-x-x-x-x-3~--x-x-x-x-x-x--|

Main Theme II:

Claudio Main Theme II: x 1

e------------------------------------------------------------------|
B------------------------------------------------------------------|
G------------------------------------------------------------------|
D-2-2-x-2-2-2-x-2-2-2-x-2-2-2-0-0-2-2-x-2-2-2-x-2-2-2-x-2-2-2-0-0--|
A-3-3-x-3-3-3-x-3-3-3-x-3-3-3-2-2-0-0-x-0-0-0-x-0-0-0-x-0-0-0-2-2--|
E------------------------------------------------------------------|

2nd Verse:

Claudio Verse Riff x 1

2nd Chorus:

Claudio Chorus Chords x 1

Main Theme III:

Claudio Main Theme III: x 1

e------------------------------------------------------------------|
B------------------------------------------------------------------|
G---------------------------------------------5-5-5-5-5-5-5-5/2-0--|
D-2-2-x-2-2-2-x-2-2-2-x-2-2-2-0-0-2-2-x-0-5-7----------------------|
A-3-3-x-3-3-3-x-3-3-3-x-3-3-3-2-2-0-0-x----------------------------|
E------------------------------------------------------------------|

e------------------------------------------------------------------|
B------------------------------------------------------------------|
G------------------------------------------------------------------|
D-2-2-x-2-2-2-x-2-2-2-x-2-2-2-0-0-2-2-x----------------------------|
A-3-3-x-3-3-3-x-3-3-3-x-3-3-3-2-2-0-0-x-------3-5/7-5/3p0-3-5-0-0--|
E---------------------------------------0-3-5----------------------|

3nd Chorus:

Claudio Chorus Chords x 1

Main Theme IV:

Claudio Main Theme IV: x 1

e------------------------------------------------------------------|
B------------------------------------------------------------------|
G-----------------------------------------------------4-4-4-4-0-0--|
D-2-2-x-2-2-2-x-2-2-2-x-2-2-2-0-0-2-2-x-2-2-2-X-2-2-0--------------|
A-3-3-x-3-3-3-x-3-3-3-x-3-3-3-2-2-0-0-x-0-0-0-x-0-0-0--------------|
E------------------------------------------------------------------|

3rd Verse:

Claudio Verse Riff x 1

4th Chorus:

Claudio Chorus Chords x 1

End:

e---------|
B---------|
G-0~------|
D-2~------|
A-3~------|
E---------|
Suggest correction
Give kudos to tab author, rate the tab!
1 2 3 4 5
comments
print report bad tab
1 comment total.
0 reply
xxDROXxx 10 wrote on June 7 2012, 07:43 pm

In the intro, he plays-


e------------------------------------------------------------------|
B------------------------------------------------------------------|
G-------------------------------------------------4-4-4-4-4-0----|
D-2-2-x-2-2-2-x-2-2-2-x-2-2-2-0-0-2-2-x-2-2-0-2-5-----------------2--|
A-3-3-x-3-3-3-x-3-3-3-x-3-3-3-2-2-0-0-x-0-0------------------------|
E------------------------------------------------------------------|

If not perfect, this is very close.

guest
You may want to rate the tab now too:
select rating
Wanna post a correction for this tab? Suggest correction