Oops, an error
Loading. Please wait.

Suffering Bass Tab

version 1
version 1

Whole song

Interactive

5,106 views 1 this week
1 commentread comment
1 2 3 4 5
x 5
add to favorites
launch autoscroll
font size
0
reset
guitar tuner
Autoscroll
slow
fast
+/-
esc
set tempo
stop
Help us to improve Ultimate-Guitar.com Take our survey!
×
Author
Difficulty
novice
Arist: Coheed And Cambria
Song: The Suffering

Email: MIKEMIGGER@yahoo.com

Rate fairly and ask any questions with email
Thanks

Intro part 1
G|---|-----|-----|-----||
D|---|-----|-----|-----||
A|---|-5-7-|-7---|-----||
E|-8-|-----|---0-|-3-5-||

Intro part 2
G|------------------|---------------|----------------|-----------0----||
D|------------------|---------------|----------------|-------2-3------||
A|-0-0-0---0-2---3--|-------0---0---|---3--------3---|---3----------3-||
E|-------0-----0----|-3-0-3---3---1-|-1------0-1---0-|-1--------------||

Verse 1
G|-----0-------|---0---0---|-------------|---------------||
D|-------2-0-0-|-0---2---2-|-2/--2-------|---------------||
A|-3/----------|-----------|-------------|-------------5-||
E|-------------|-----------|-------0---0-|-0---0-0-3-0---||

G|------------------|---------------|----------------|---5--------0----||
D|------------------|---------------|-------2-3----2-|-3------2-3------||
A|-0-0-0---0-2---3--|-------0---0---|---3--------3---|---------------3-||
E|-------0-----0----|-3-0-3---3---1-|-1--------------|-----------------||

G|-----0-------|---0---0---|-------------|---------------||
D|-------2-0-0-|-0---2---2-|-2/--2-------|---------------||
A|-3/----------|-----------|-------------|-------------5-||
E|-------------|-----------|-------0---0-|-0---0-0-3-0---||

G|------------------|---------------|----------------|---5--------0----||
D|------------------|---------------|-------2-3----2-|-3------2-3------||
A|-0-0-0---0-2---3--|-------0---0---|---3--------3---|---------------3-||
E|-------0-----0----|-3-0-3---3---1-|-1--------------|-----------------||

G|-----0-------|---0---0---|-------------|---------------||
D|-------2-0-0-|-0---2---2-|-2/--2-------|---------------||
A|-3/----------|-----------|-------------|-------------5-||
E|-------------|-----------|-------0---0-|-0---0-0-3-0---||

G|------------------|---------------|----------------|---5--------0----||
D|------------------|---------------|-------2-3----2-|-3------2-3------||
A|-0-0-0---0-2---3--|-------0---0---|---3--------3---|---------------3-||
E|-------0-----0----|-3-0-3---3---1-|-1--------------|-----------------||

G|---5------0-----|---|---------------2--||
D|-3----2-3---2-0-|-0-|-0-0-0-0-0-0------||
A|----------------|---|-------------0----||
E|----------------|---|------------------||

Pre-Chorus
G|----------------|---------------|---------------|---------------||
D|-2/-------------|---------------|---------------|---------------||
A|----------------|-------------0-|-0-0-0---2-0---|---------0-2-3-||
E|-----1-1-1---1--|-1-1--1-1-3----|-------0-----3-|-3-3-3-3-------||

G|-----------------|---------------|----|-----------------||
D|-----2-----------|-------------0-|-0/-|-0-0-0-0-0-0---3-||
A|-3-3---3-2-0-----|---------------|----|-------------0---||
E|-------------3-1-|-1---1---1-----|----|-----------------||

G|----------------|---------------|---------------||
D|-2/-------------|---------------|---------------||
A|----------------|-------------0-|-0-0-0---2-0---||
E|-----1-1-1---1--|-1-1--1-1-3----|-------0-----3-||

G|-----------------|-----------------|----------------||
D|-----0-----------|-----2-----------|-------------2/-||
A|-------3-3-2-0-3-|-3-3---3-2-0-----|----------------||
E|-3-3-------------|-------------3-1-|-1---1---1------||

Verse 2
G|----|-0---|-----------|-------------|---------||
D|----|---2-|-----------|-2/--2-------|---------||
A|-2/-|-----|-2-2-------|-------------|-------5-||
E|----|-----|-----0---0-|-------0---0-|-0---3---||

G|------------------|---------------|----------------|-----------0----||
D|------------------|---------------|----------------|-------2-3------||
A|-0-0-0---0-2---3--|-------0-------|---3--------3---|---3----------3-||
E|-------0-----0----|-3-0-3---3-0-1-|-1------0-1---0-|-1--------------||

G|-----0-------|---0---0---|-------------|---------------||
D|-------2-0-0-|-0---2---2-|-2/--2-------|---------------||
A|-3/----------|-----------|-------------|-------------5-||
E|-------------|-----------|-------0---0-|-0---0-0-3-0---||

G|------------------|---------------|----------------||
D|------------------|---------------|--------------2-||
A|-0-0-0---0-2---3--|-------0---0---|---3--------3---||
E|-------0-----0----|-3-0-3---3---1-|-1----0-1-------||

G|---5------0-----|---|---------------2--||
D|-3----2-3---2-0-|-0-|-0-0-0-0-0-0------||
A|----------------|---|-------------0----||
E|----------------|---|------------------||

Pre-Chorus 2
G|----------------|---------------|---------------|---------------||
D|-2/-------------|---------------|---------------|---------------||
A|----------------|-------------0-|-0-0-0---2-0---|---------0-2-3-||
E|-----1-1-1---1--|-1-1--1-1-3----|-------0-----3-|-3-3-3-3-------||

G|-----------------|------------------|-------------|--------------||
D|-----2-----------|------------------|-------------|--------------||
A|-3-3---3-2-0-----|------------------|-------------|------------3-||
E|-------------3-1-|-1---1---1--1-1-1-|-1-1-1-1-1-1-|-1-1-1-1-3----||

Chorus 1
G|-----------------|-----------------|-----------------|-----------------||
D|-----------------|-----------------|-----------------|-----------------||
A|-3-3-3-3-3-3-3-3-|-3-3-3-3-3-2-0---|-----------------|-----------------||
E|-----------------|---------------3-|-3-3-3-3-3-3-3-3-|-3-3-3-3-3-3-4-5-||

G|-----------------|-----------------|-----------------|-----------------||
D|-----------------|-----------------|-----------------|-----------------||
A|-0-0-0-0-0-0-0-0-|-0-0-0-0-3-2-0---|---------2-3-5---|-----------0-2-3-||
E|-----------------|---------------1-|-1-1-1-1-------3-|-3-3-3-3-3-------||

G|-----------------|-----------------|-----------------|-----------------||
D|-----------------|-----------------|-----------------|-----------------||
A|-3-3-3-3-3-3-3-3-|-3-3-3-3-3-2-0---|-----------------|-----------------||
E|-----------------|---------------3-|-3-3-3-3-3-3-3-3-|-3-3-3-3-3-3-4-5-||

G|-----------------|-----------------|-----------------||
D|-----------------|-----------------|-----------------||
A|-0-0-0-0-0-0-0-0-|-0-0-0-0-3-2-0---|---------2-3-5---||
E|-----------------|---------------1-|-1-1-1-1-------3-||

G|-----------------|-----------------|----------------||
D|-----------------|-0-0-0-0-0-0-0-0-|-0-0-0-0-0---2/-||
A|-----------------|-----------------|-----------0----||
E|-3-3-3-3-3-3-4-5-|-----------------|----------------||

Pre-Chorus
G|----------------|---------------|---------------|---------------||
D|-2/-------------|---------------|---------------|---------------||
A|----------------|-------------0-|-0-0-0---2-0---|---------0-2-3-||
E|-----1-1-1---1--|-1-1-----------|-------0-----3-|-3-3-3-3-------||

G|-----------------|---------------|-------------|----------------||
D|-----2-----------|-------------0-|-------------|-0-0-0-0-0-0-2/-||
A|-3-3---3-2-0-----|---------------|-------------|----------------||
E|-------------3-1-|-1---1---1-----|-1-1-1-1-1-1-|----------------||

G|----------------|---------------|---------------|-----------------||
D|-2/-------------|---------------|---------------|-----0-----------||
A|----------------|-------------0-|-0-0-0---2-0---|-------3-3-2-0-3-||
E|-----1-1-1---1--|-1-1--1-1-3----|-------0-----3-|-3-3-------------||

G|-----------------|------------------|-------------|-------------0---||
D|-----2-----------|------------------|-------------|---------2-1---3-||
A|-3-3---3-2-0-----|------------------|-------------|-----------------||
E|-------------3-1-|-1---1---1--1-1-1-|-1-1-1-1-1-1-|-1-1-1-1---------||

Chorus 2
G|-----------------|-----------------|-----------------|-----------------||
D|-----------------|-----------------|-----------------|-----------------||
A|-3-3-3-3-3-3-3-3-|-3-3-3-3-3-2-0---|-----------------|-----------------||
E|-----------------|---------------3-|-3-3-3-3-3-3-3-3-|-3-3-3-3-3-3-4-5-||

G|-----------------|-----------------|-----------------|-----------------||
D|-----------------|-----------------|-----------------|-----------------||
A|-0-0-0-0-0-0-0-0-|-0-0-0-0-3-2-0---|---------2-3-5---|-----------0-2-3-||
E|-----------------|---------------1-|-1-1-1-1-------3-|-3-3-3-3-3-------||

G|-----------------|-----------------|-----------------|-----------------||
D|-----------------|-----------------|-----------------|-----------------||
A|-3-3-3-3-3-3-3-3-|-3-3-3-3-3-2-0---|-----------------|-----------------||
E|-----------------|---------------3-|-3-3-3-3-3-3-3-3-|-3-3-3-3-3-3-4-5-||

G|-----------------|-----------------|-----------------|-----------------||
D|-----------------|-----------------|-----------------|-----------------||
A|-0-0-0-0-0-0-0-0-|-0-0-0-0-3-2-0---|---------2-3-5---|-----------0-2-3-||
E|-----------------|---------------1-|-1-1-1-1-------3-|-3-3-3-3-3-------||

G|-----------------|-----------------|-----------------|-----------------||
D|-----5---5-----5-|-----5-----------|-----------------|-----------------||
A|-3-3---3---3-3---|-3-3---3-3-2-0---|-----5---5-------|-----------------||
E|-----------------|---------------3-|-3-3---3---3-3-3-|-3-3-3-3-3-3-4-5-||

G|-----------------|-----------------|-----------------|-----------------||
D|-----------------|-----------------|-----------------|-----------------||
A|-0-0-0-0-0-0-0-0-|-0-0-0-0-3-2-0---|---------2-3-5---|-----------0-2-3-||
E|-----------------|---------------1-|-1-1-1-1-------3-|-3-3-3-3-3-------||

G|-----------------|-----------------|-----------------|-----------------||
D|-----------------|-----------------|-----------------|-----------------||
A|-3-3-3-3-3-3-3-3-|-3-3-3-3-3-2-0---|-----------------|-----------------||
E|-----------------|---------------3-|-3-3-3-3-3-3-3-3-|-3-3-3-3-3-3-4-5-||

G|-----------------|-----------------|-----------------|-----------------||
D|-----------------|-----------------|-----------------|-----------------||
A|-0-0-0-0-0-0-0-0-|-0-0-0-0-3-2-0---|---------2-3-5---|-----------0-2-3-||
E|-----------------|---------------1-|-1-1-1-1-------3-|-3-3-3-3-3-------||

G|-----------------|-----------------|-----------------|-----------------||
D|-----------------|-----------------|-----------------|-----------------||
A|-3-3-3-3-3-3-3-3-|-3-3-3-3-3-2-0---|-----------------|-----------------||
E|-----------------|---------------3-|-3-3-3-3-3-3-3-3-|-3-3-3-3-3-3-4-5-||

G|-----------------|-----------------|-----------------|-----------------||
D|-----------------|-----------------|-----------------|-----------------||
A|-0-0-0-0-0-0-0-0-|-0-0-0-0-3-2-0---|---------2-3-5---|-----------0-2-3-||
E|-----------------|---------------1-|-1-1-1-1-------3-|-3-3-3-3-3-------||

G|-----------------|-----------------|-----------------|----|------||
D|-----------------|-----------------|---3-2---3-2-----|----|------||
A|-----------------|-----------------|-------3-----3-3-|-3/-|-3-3/-||
E|-3-3-3-3-3-3-3-3-|-3-3-3-3-3-3-3-3-|-3---------------|----|------||



Suggest correction
comments
print report bad tab
1 comment total.
0 reply
Axzonn 31 Aug 15, 2016 05:29 PM

This is a half step up. The tuning should be a half step down. Other than that it looks pretty accurate

guest
You may want to rate the tab now too:
select rating
Wanna post a correction for this tab? Suggest correction