Oops, an error
Loading. Please wait.

Suffering Tab

version 1
version 1

Whole song

Interactive

123,089 views 84 this week
34 commentsread comments
1 2 3 4 5
accurate
x 35
add to favorites
launch autoscroll
font size
0
reset
how to read this tab
guitar tuner
Autoscroll
slow
fast
+/-
esc
set tempo
stop
Help us to improve Ultimate-Guitar.com Take our survey!
×
Author
Tuning
D# G# C# F# A# D#
Title: The Suffering
Artist: Coheed & Cambria
Album: Good Apollo I'm Burning Star IV, Volume 1: From Fear Through
 The Eyes of Madness

Copyright © Columbia Records 2005
Version 1.0 - 08/12/2005 - Original tab

Tabbed by: Chris Frazier (cdf0103@mail.ecu.edu) 

... - Keep Ab Db Gb Bb Eb)(Left Speaker)
Guitar II; Eleplay chord at steady pace

Guitar I; Electric, Rhythm (Eb ctric, Lead (Eb Ab Db Gb Bb Eb)(Right Speaker)

[Phase I]
 (Guitar II)
D#|-----------------------------------------------------------------------------------|
A#|-----------------------------------------------------------------------------------|
F#|-----------------------------------------------------------------------------------|
C#|------5-2--0-0-0--5-2--7--9/-------------------------------------------------10-10-|
G#|-10/-------------------5--7/--2-2--------------5-7--7-7-7-7-7-5--------------8--8--|
D#|-8-/--------------------------0-0--0-0-0--0-0--3-5--5-5-5-5-5-3---0-3-5-3--0-------|
        . .  . . .  . .         . .  . . .  . .       . . . .       . . . .  .

D#|--------------------------||
A#|--------------------------||
F#|--------------------------||
C#|---10-10--10-10--10-10-12-||
G#|---7--8---7--8---7--8--10-||
D#|--------------------------||
   .  .          .  .

[Phase I Pt. 1]
 (Guitar I)
D#|------------------------------------------------------------------------------------|
A#|------------------------------------------------------------------------------------|
F#|-----------------------5--4/-------------------7-9--------9-7/----------7-----10/12-|
C#|------5-2--0-0-0--5-2--5--5/-------------------x-x--------x-x-------------7/--x--x--|
G#|------------------------------2-2--------------5-7--------7-5/----------------8-/10-|
D#|------------------------------0-0--0-0-0--0-0-------0-0-0-------0-3-5-3-------------|
        . .  . . .  .           . .  . . .  . .       . . .       . . . .

D#|-------------------------||
A#|-------------------------||
F#|---12/14---14/16/14--12/-||
C#|---x--x----x--x--x---x---||
G#|---10/12---12/14/12--10/-||
D#|-0-------0---------------||
 .       .

[Phase I Pt. 2]
 (Guitar I)
D#|---------------------------------------------------------------------------------------|
A#|---------------------------------------------------------------------------------------|
F#|-----------------------5--4/-------------------7*-9--------9*-7/----------7*-----10/12-|
C#|------5-2--0-0-0--5-2--5--5/-------------------------------------------------7/---x--x-|
G#|------------------------------2-2------------------------------------------------8-/10-|
D#|------------------------------0-0--0-0-0--0-0-------0-0-0--------0-3-5-3---------------|
        . .  . . .  .           . .  . . .  . .       . . .        . . . .

D#|------------------------||
A#|------------------------||
F#|--12/14---14/16/14--12/-||
C#|---x--x----x--x--x---x--||
G#|--10/12---12/14/12--10/-||
D#|------------------------||

 Phase II (Guitar I)
D#|----------------------------------------------------------------------------------------|
A#|----------------------------------------------------------------------------------------|
F#|----------------------------------------------------------------------------------------|
C#|--------------------------------------------------------------------------------------5-|
G#|-12/-----------------------------------3--3-3-3--3-3-3--3-3-5--7-7-...--7-5--5-...--5-3-|
D#|-10/-----------------------------------1--1-1-1--1-1-1--1-1-3--5-5-...--5-3--3-...--3---|
                                            . . .  . . .  . .      . ...       . ...

D#|--------------------------------||
A#|--------------------------------||
F#|--------------------------------||
C#|-5-...-5------------------------||
G#|-3-...-3-3--3-...-3/--3-...-3---||
D#|---------1--1-...-1/--1-...-1/12||
 . ...      . ...       ...

[Phase II Pt. 1]
(Guitar II)
D#|---------------------------|
A#|---------------------------|
F#|---------------------------|
C#|---------------------------|
G#|-12/---x-x-x--x-x-x--x-x-x-|
D#|-10/---x-x-x--x-x-x--x-x-x-|

D#|---8---8------------------8---8--------------------------------------------------------|
A#|-8---8---8-6-5b--7-5b---8---8---8------------------------------------------------------|
F#|-------------------------------------5-7-5/-----5-7-5h7p5----5-7-5/-------------5-5-5/-|
C#|-----------------------------------5---------5-------------5--------7-7-7-7-7-7--------|
G#|---------------------------------------------------------------------------------------|
D#|---------------------------------------------------------------------------------------|
                                  .         .             .        . . . . . . . .

D#|------------||
A#|------------||
F#|------------||
C#|------------||
G#|-3-...-3----||
D#|-1-...-1/12-||


[Phase II Pt. 2]
(Guitar II)
D#|---8---8------------------8---8-------------------------------------------------10-10b-8-8-||
A#|-8---8---8-6-5b--7-5b---8---8---8----------------------------------------------------------||
F#|-------------------------------------5-7-5/-----5-7-5h7p5----5-7-5/------------------------||
C#|-----------------------------------5---------5-------------5--------7-7-7-7-7-7------------||
G#|-------------------------------------------------------------------------------------------||
D#|-------------------------------------------------------------------------------------------||
                                     .         .             .        . . . . . .
[Phase III] 
(Guitar I)
D#|-------------------------||
A#|-------------------------||
F#|-------------------------||
C#|-5-...-------------------||
G#|-3-...-5-...-7-...-3-...-||
D#|-------3-...-5-...-1-...-||

[Phase III Pt. 1]
(Guitar II)
D#|-----------------------------------------------------------------------------------||
A#|-----------------------------------------------------------------------------------||
F#|-----12-10-9-10-9------12-10-9-10-9---9-...-9/7-...-7/9-...-9/10-------------------||
C#|-10----------------10-----------------x-...-x/x-...-x/x-...-x/x--------------------||
G#|--------------------------------------7-...-7/5-...-5/7-...-7/8----2h3p2---2h3---5-||
D#|-------------------------------------------------------------------------3-----3---||

[Phase III Pt. 2]
(Guitar II)
D#|----------------------------------------------------------------------------------------||
A#|----------------------------------------------------------------------------------------||
F#|-----12-10-9-10-9---------9-10-12-12b-10---9-...-9/7-...-7/9-...-9/10-------------------||
C#|-10----------------10--12------------------x-...-x/x-...-x/x-...-x/x--------------------||
G#|-------------------------------------------7-...-7/5-...-5/7-...-7/8----2h3p2---2h3---5-||
D#|------------------------------------------------------------------------------3-----3---||

[Phase IV]
(Guitar I)
D#|---------------------------------------------------------||
A#|---------------------------------------------------------||
F#|---------------------------------------------------------||
C#|-5-...---------------------------------------------------||
G#|-3-...-5-...-7-...-3-...-5-...--8-7---8-7---10-------10/-||
D#|-------3-...-5-...-1-...-3-...------8-----8-8--------8-/-||

[Phase IV]
(Guitar II)
D#|------------------------------------------------------------------------------------|
A#|------------------------------------------------------------------------------------|
F#|-----12-10-9-10-9------12-10-9-10-9---9-...-9/7-...-7/9-...-9/10--------------------|
C#|-10----------------10-----------------x-...-x/x-...-x/x-...-x/x---------------------|
G#|--------------------------------------7-...-7/5-...-5/7-...-7/8----2h3p2---2h3---5--|
D#|-------------------------------------------------------------------------3-----3----|

D#|-------------------------------------------||
A#|-------------------------------------------||
F#|-------------------------------------------||
C#|-------------------------------------------||
G#|----2-------------8-7---8-7---10-------10/-||
D#|-----------3----------8-----8-8--------8---||



************************************
 
.  - palm mute
/  - slide up and down to
b  - Bend
() - Natural harmonics
*  - Pinch harmonics
h  - Hammer
p  - Pull off
\"  - Tremolo Picking
x  - Mute 

************************************
Suggest correction
comments
print report bad tab
34 comments total. Showing first comments.
0 reply
OnlyOnTuesdays 114 wrote on August 14 2005, 12:00 am

where do u get these songs lol.. i need the new cd

0 reply
Horace 10 wrote on August 15 2005, 12:00 am

They've all either been leaked or played live before. With the exception of Welcome Home, of course.

0 reply
elix997 195 wrote on August 20 2005, 12:00 am

this is a GREAT tab!

guest
You may want to rate the tab now too:
select rating
Wanna post a correction for this tab? Suggest correction