Oops, an error
Loading. Please wait.

Ten Speed Of Gods Blood And Burial Tab

version 2
version 2

Whole song

Interactive

33,897 views 42 this week
9 commentsread comments
1 2 3 4 5
x 22
add to favorites
launch autoscroll
font size
0
reset
how to read this tab
guitar tuner
backing track
0:00
0:00
×
Best way to learn
"Ten Speed Of Gods Blood And Burial"
Autoscroll
slow
fast
+/-
esc
set tempo
stop
Author
Difficulty
intermediate
[Intro]
(Fast Rock Q=160)
    A5
 1/4   4/4
(Gtr 3)
  E E   +W                 +W                     +W
    |    |                  |                      |
    /    /                  /                      /
(Gtr 1)
   Q      E E E E E E E E    E  E  E  E E E  E E    E E E E E E E E
e|-----|------------------|----------------------|-------------------|
B|-----|------------------|----------------------|-------------------|
G|-----|------9-9-7-7-----|----------------------|------9-9-7-7------|
D|-----|----7---------7-7-|-10-10-------9-9----7-|----7---------7-7--|
A|-----|------------------|-------10-10-----10---|-------------------|
E|-----|------------------|----------------------|-------------------|

  +W                     +W                       +W
   |                      |                        |
   /                      /                        /
    E  E  E  E E E  E E    E  E  E  E  E E  E  E    E  E  E  E  E E  E  E
e|----------------------|------------------------|------------------------|
B|----------------------|------------------------|------------------------|
G|----------------------|--------9--9--7-7-------|------------------------|
D|-10-10-------9-9----7-|-----7-------------7--7-|-10-10--------9-9-----7-|
A|-------10-10-----10---|------------------------|-------10-10------10----|
E|----------------------|------------------------|------------------------|

(Gtr 2)
                                       ~~           ~~          ~~
 |  W                      E  E  E  E  Q    E  E    Q     E  E  Q    E  E
e|----------------------|------------------------|------------------------|
B|----------------------|------------------------|------------------------|
G|----------------------|----------14------------|------------------------|
D|----------------------|----14-15----15---14----|-14----15-14------------|
A|----------------------|---------------------17-|-------------17---------|
E|----------------------|------------------------|------------------17-17-|

[Verse]
                                                       N.C.
   E  E  E  E  E E  E  E    E  E  E  E  E  E  E  E     E  E  E  E  E E  E  E
e|-----------------------|-------------------------|------------------------|
B|-----------------------|-------------------------|o-----------------------|
G|-------9--9--7-7-------|-------------------------|--------9--9--7-7-------|
D|----7-------------7--7-|-10-10--------9--9-----7-|-----7-------------7--7-|
A|-----------------------|-------10-10-------10----|o-----------------------|
E|-----------------------|-------------------------|------------------------|

               ~~           ~~                                     ~~
 | E  E  E  E  Q    E  E    Q     E  E  E  E  E  E     E  E  E  E  Q    E  E
e|-----------------------|----------------13-15-17-|------------------------|
B|-----------------------|----------15-17-13-15-17-|o-----------------------|
G|---------14------------|----------14-16----------|----------14------------|
D|---14-15----15---14----|-14----15----------------|----14-15----15---14----|
A|--------------------17-|-------------------------|o--------------------17-|
E|-----------------------|-------------------------|------------------------|

                                                    1.,2.,3.
    E  E  E  E  E E  E  E   E  E  E  E  E E  E  E    E  E  E  E  E  E  E  E  (4x)
e|------------------------|-----------------------|--------------------------|
B|------------------------|-----------------------|-------------------------o|
G|------------------------|-------9--9--7-7-------|--------------------------|
D|-10-10--------9-9-----7-|----7-------------7--7-|-10-10--------9--9-----7--|
A|-------10-10------10----|-----------------------|-------10-10-------10----o|
E|------------------------|-----------------------|--------------------------|

    ~~          ~~                      ~~           ~~
 |  Q     E  E  Q    E  E   E  E  E  E  Q    E  E    Q     E  E  E  E  E  E  (4x)
e|------------------------|-----------------------|----------------13-15-17--|
B|------------------------|-----------------------|----------15-17-13-15-17-o|
G|------------------------|---------14------------|----------14-16-----------|
D|-14----15-14------------|---14-15----15---14----|-14----15-----------------|
A|-------------17---------|--------------------17-|-------------------------o|
E|------------------17-17-|-----------------------|--------------------------|

[Chorus]
                            $
                            F5   N.C.
   E  E  E  E  E E  E E     Q  E E E E E E
e|-----------------------|----------------|
B|-----------------------|----------------|
G|-----------------------|----------------|
D|----7--------9-9----7\-|--------2-------|
A|------10-10------10----|-3----3---3---3-|
E|-----------------------|-1--------------|

 | E  E  E  H         E     Q  E E E E E E
e|-----------------------|----------------|
B|-----------------------|------------1---|
G|-----------------------|------2-------2-|
D|---14-15-14\-----------|----------------|
A|-----------------------|-3------3-3-----|
E|-----------------------|-1--------------|

                 D5                        A5
   E E E E E E E E   +E   E  E  E  E  Q     E
e|-----------------|--------------------------|
B|-----------------|--------------------------|
G|-----------------|--------------------------|
D|-3-2-----3-2---7-|-(7)--7-----7--7----------|
A|-------3-----3-5-|-(5)--5-----5--5--------7-|
E|-----------------|------------------------5-|

 | E E E E E E E E   +E   E  E  E  E  E  E  E
e|---3-----1p0-----|--------------------------|
B|-----1-----------|--------------18-------17-|
G|-------2-----2---|-----17-------------------|
D|---------------0-|-(0)----19-19----19-19----|
A|-3---------------|--------------------------|
E|-----------------|--------------------------|

                  C5    F5          N.C.
    E  Q     E  E  E  E E   +E  E E E E E E E
e|------------------------|-------------------|
B|------------------------|-------------------|
G|------------------------|-------------------|
D|-----------------5------|-----------2-------|
A|--7--------7-----3----3-|-(3)-3---3---3---3-|
E|--5--------5----------1-|-(1)-1-------------|

                                      PM|   PM-
 |  E  E  E  E  E  Q    E   +E  E E E E E E E
e|------------------------|-------------------|
B|------------------------|---------------1---|
G|-------19-------17\-----|---------2-------2-|
D|-19-19----19-19---------|-------------------|
A|----------------------3-|-(3)-3-----3-3-----|
E|----------------------1-|-(1)-1-------------|

                 D5                     A5
                                         PM|
   E E E E E E E E   +E   E  E  E  E  E  E  E
e|-----------------|--------------------------|
B|-----------------|--------------------------|
G|-----------------|--------------------------|
D|-3-2-----3-2---7-|-(7)--7-----7--7----------|
A|-------3-----3-5-|-(5)--5-----5--5-----7--7-|
E|-----------------|---------------------5--5-|

|-|   PM|     PM--------------|      PM|
  E E E E E E E E   +E   E  E  E  E  E  E  E
e|---3-----1p0-----|--------------------------|
B|-----1-----------|--------------18-------17-|
G|-------2-----2---|-----17-------------------|
D|---------------0-|-(0)----19-19----19-19----|
A|-3---------------|--------------------------|
E|-----------------|--------------------------|

         C5                 F5          N.C.                      D5
    PM|
    E  E  E   Q     E   E   E   +E  E E E E E E E   E E E E E E E E
e|----------------------------|-------------------|-----------------|
B|----------------------------|-------------------|-----------------|
G|----------------------------|-------------------|-----------------|
D|--------5\--------5---------|-----------2-------|-3-2-----3-2---7-|
A|--7--7--3\--------3-------3-|-(3)-3---3---3---3-|-------3-----3-5-|
E|--5--5--------------------1-|-(1)-1-------------|-----------------|

    PM|       PM|
    E  E  E   E  E  E  +E   E   +E  E E E E E E E   E E E E E E E E
e|----------------------------|-------------------|---3-----1p0-----|
B|----------------------------|---------------1---|-----1-----------|
G|-------19--------17-(17)\---|---------2-------2-|-------2-----2---|
D|-19-19-----19-19------------|-------------------|---------------0-|
A|--------------------------3-|-(3)-3-----3-3-----|-3---------------|
E|--------------------------1-|-(1)-1-------------|-----------------|

                         A5                  C5    F5          N.C.
    E   E  E  E  E  Q     E    E  E  E  E  E  E  E E   +E  E E E E E E E
e|--------------------------|------------------------|-------------------|
B|--------------------------|------------------------|-------------------|
G|--------------------------|------------------------|-------------------|
D|--7---7-----7--7----------|-----------------5------|-----------2-------|
A|--5---5-----5--5--------7-|--7--------7-----3----3-|-(3)-3---3---3---3-|
E|------------------------5-|--5--------5----------1-|-(1)-1-------------|

                                                                 PM|   PM
   +E   E  E  E  E  E  E  E    E  E  E  E  E  Q    E   +E  E E E E E E E
e|--------------------------|------------------------|-------------------|
B|--------------18-------17-|------------------------|---------------1---|
G|-----17-------------------|-------19-------17\-----|---------2-------2-|
D|-(0)----19-19----19-19----|-19-19----19-19---------|-------------------|
A|--------------------------|----------------------3-|-(3)-3-----3-3-----|
E|--------------------------|----------------------1-|-(1)-1-------------|

[Coda]
                D5                     A5                 C5             A5
(Guitar 3)
  W                  W                          H..                      E
                                                                         |           
                                        PM----------|
  E E E E E E E E   +E   E  E  E  E  E  E  E    E    E  E  E  E  E   Q
e|-----------------|--------------------------|-----------------------------|
B|-----------------|--------------------------|-----------------------------|
G|-----------------|--------------------------|-----------------------------|
D|-3-2-----3-2---7-|-(7)--7-----7--7----------|-------------5-----5---------|
A|-------3-----3-5-|-(5)--5-----5--5-----7--7-|--7----7--7--3-----3---------|
E|-----------------|---------------------5--5-|--5----5--5------------------|

 | PM  PM|     PM--------------|      PM|        PM--|      PM|
 | E E E E E E E E   +E   E  E  E  E  E  E  E    E    E  E  E  E  E  +E   E
e|---3-----1p0-----|--------------------------|-----------------------------|
B|-----1-----------|--------------18-------17-|-----------------------------|
G|-------2-----2---|-----17-------------------|---------19-------17-(17)\---|
D|---------------0-|-(0)----19-19----19-19----|-19---19----19-19------------|
A|-3---------------|--------------------------|-----------------------------|
E|-----------------|--------------------------|-----------------------------|

[Pre-Verse]
  +W                 +W
   |                  |
   /                  /
    E E E E E E E E    E  E  E  E E E  E E
e|------------------|----------------------|
B|------------------|----------------------|
G|------9-9-7-7-----|----------------------|
D|----7---------7-7-|-10-10-------9-9----7-|
A|------------------|-------10-10-----10---|
E|------------------|----------------------|

 |  W                  W
e|------------------|----------------------|
B|------------------|----------------------|
G|------------------|----------------------|
D|------------------|----------------------|
A|------------------|----------------------|
E|------------------|----------------------|

  +W                       +W
   |                        |
   /                        /
    E  E  E  E  E E  E  E    E  E  E  E  E  E  E  E
e|------------------------|-------------------------|
B|------------------------|-------------------------|
G|--------9--9--7-7-------|-------------------------|
D|-----7-------------7--7-|-10-10--------9--9-----7-|
A|------------------------|-------10-10-------10----|
E|------------------------|-------------------------|

(Gtr 2)
                ~~           ~~
 |  E  E  E  E  Q    E  E    Q     E  E  E  E  E  E
e|------------------------|----------------13-15-17-|
B|------------------------|----------15-17-13-15-17-|
G|----------14------------|----------14-16----------|
D|----14-15----15---14----|-14----15----------------|
A|---------------------17-|-------------------------|
E|------------------------|-------------------------|

[Verse]
     N.C.
     E  E  E  E  E E  E  E    E  E  E  E  E E  E  E
e|------------------------|------------------------|
B|o-----------------------|------------------------|
G|--------9--9--7-7-------|------------------------|
D|-----7-------------7--7-|-10-10--------9-9-----7-|
A|o-----------------------|-------10-10------10----|
E|------------------------|------------------------|

                 ~~           ~~          ~~
 |   E  E  E  E  Q    E  E    Q     E  E  Q    E  E
e|------------------------|------------------------|
B|o-----------------------|------------------------|
G|----------14------------|------------------------|
D|----14-15----15---14----|-14----15-14------------|
A|o--------------------17-|-------------17---------|
E|------------------------|------------------17-17-|

                           1.,2.,3.
   E  E  E  E  E E  E  E    E  E  E  E  E  E  E  E   (4x)
e|-----------------------|---------------------------|
B|-----------------------|--------------------------o|
G|-------9--9--7-7-------|---------------------------|
D|----7-------------7--7-|-10-10--------9--9-----7---|
A|-----------------------|-------10-10-------10-----o|
E|-----------------------|---------------------------|

               ~~           ~~
 | E  E  E  E  Q    E  E    Q     E  E  E  E  E  E   (4x)
e|-----------------------|----------------13-15-17---|
B|-----------------------|----------15-17-13-15-17--o|
G|---------14------------|----------14-16------------|
D|---14-15----15---14----|-14----15------------------|
A|--------------------17-|--------------------------o|
E|-----------------------|---------------------------|

[Coda]    
                               A5    C5             G5
                                PM|
    E  E  E  E  E  E  E E       E  E  E   Q     E E  E
e|--------------------------|-------------------------|
B|--------------------------|-------------------------|
G|--------------------------|-------------------------|
D|-10-10--------9--9----7\--|------------------5------|
A|-------10-10-------10-----|--7--7-10\--------3----5-|
E|--------------------------|--5--5--8\-------------3-|

    ~~                          PM|       PM|
 |  Q     E  E  Q.      E       E  E  E   E  E  E E  E
e|--------------------------|-------------------------|
B|--------------------------|-------------------------|
G|--------------------------|-------19--------17---19-|
D|-14----15-14--------------|-19-19-----19-19---------|
A|-------------17\----------|-------------------------|
E|--------------------------|-------------------------|

[Guitar Solo]
           N.C.                        E5
    E  E E E E E E E    E  E E E E E E E
e|-------------------|-------------------|
B|-------------------|-------------------|
G|-------------------|-------------------|
D|-----------4-------|--5--4-----5-4---9-|
A|--5--5-5-5---5---5-|---------5-----5-7-|
E|--3--3-3-----------|-------------------|

(Gtrs 3, 4)
                   ~~~~~~~~            ~~~
 |  E  E E E E E E E   +Q.     E E E E E
e|-------------------|-------------------|
B|-------------------|-------------------|
G|-19\---------------|-------------------|
D|-----------0-2-5-4-|-(4)-----4-5-4-0-2-|
A|-----0-2-3---------|-------------------|
E|-------------------|-------------------|

                       B5                D5  G5
   +E  E E E E Q       E   E Q       E E E E  E
e|-----------------------|-----------------------|
B|-----------------------|-----------------------|
G|-----------------------|-----------------------|
D|-(9)-9---9-9-----------|---------------7-------|
A|-(7)-7---7-7---------9-|-9---------9---5----5--|
E|---------------------7-|-7---------7--------3--|

  ~~~~~                                       ~~
   +Q.     E E E  Q        E E  Q      E E E  E
e|-----------------------|-----------------------|
B|-----------------------|---------------7-------|
G|---------2-4-4-[5]b7---|-4-4-[5]b7---4-----/7--|
D|-(2)-------------------|-----------------------|
A|-----------------------|-----------------------|
E|-----------------------|-----------------------|

            N.C.                                                           E5
   +E   E E  E   E       E    E        E      E    E    E    E    E   E  E E
e|----------------------------------------|----------------------------------|
B|----------------------------------------|----------------------------------|
G|----------------------------------------|----------------------------------|
D|---------------4------------------------|---5----4--------------5---4----9-|
A|-(5)--5----5-----------5-------------5--|------------------5-----------5-7-|
E|-(3)--3---------------------------------|----------------------------------|

                                       ~~~~~       ~~~~                    ~~~
 | +E   Q    E  +E      +E   +E       +E     +E   +E   +E    S S  S S E  E E
e|----------------------------------------|----------------------------------|
B|----------10-(10)b12r(10)-(10)b13==(10)r|=(10)-(10)-(10)r-10p8h12p8p7-10-7-|
G|-(7)\-----------------------------------|----------------------------------|
D|----------------------------------------|----------------------------------|
A|----------------------------------------|----------------------------------|
E|----------------------------------------|----------------------------------|

                 B5        D5            G5
                 PM------|
  +E  E E E  E E E E   E E  E  Q    E  E  E
e|--------------------|-----------------------|
B|--------------------|-----------------------|
G|--------------------|-----------------------|
D|-(9)-9---9--9-------|--------------7--------|
A|-(7)-7---7--7---9-9-|-9-9-12\------5-----5--|
E|----------------7-7-|-7-7-10\------------3--|

  ~~~~~
 | +Q.     Q.     E E   E E  Q.      E  E  E
e|--------------------|-----------------------|
B|-(7)-----5\-----3-5-|-3-2--3\----/12-14-14--|
G|--------------------|-----------------------|
D|--------------------|-----------------------|
A|--------------------|-----------------------|
E|--------------------|-----------------------|

           N.C.                                     E5
    E  E E  E     E  E  E  E    E  E  E  E  E  E  E   E
e|---------------------------|---------------------------|
B|---------------------------|---------------------------|
G|---------------------------|---------------------------|
D|----------------4----------|--5--4--------5--4------9--|
A|--5--5----5--------5-----5-|-----------5--------5---7--|
E|--3--3---------------------|---------------------------|

(Gtr 3)
                                                      ~~~~
 |  Q.      S  S  E  E  E  E    E  E  E  E  E  E  E   E
e|---------------12-14----12-|--9-10-----9---------------|
B|-12---------12-------15----|-------12----10-12--8--[8]-|
G|---------14----------------|---------------------------|
D|---------------------------|---------------------------|
A|---------------------------|---------------------------|
E|---------------------------|---------------------------|

(Gtr 4)
                                                      ~~~~
 |  Q.      S  S  E  E  E  E    E  E  E  E  E  E  E   E
e|---------------------------|---------------------------|
B|-12------------------------|---------------------------|
G|---------------18-19-16-18-|-14-16----14---------------|
D|---------16-17-------------|-------17----16-17-14-[14]-|
A|---------------------------|---------------------------|
E|---------------------------|---------------------------|

                          B5                  D5  G5
    +E   E  E   E  E  Q     E      E  Q   E E E E E
e|-----------------------------|-----------------------|
B|-----------------------------|-----------------------|
G|-----------------------------|-----------------------|
D|--(9)--9------9--9-----------|--------------7--------|
A|--(7)--7------7--7--------9--|---9------9---5---5----|
E|--------------------------7--|---7------7-------3----|

  ~~~~~~
 |  +E   E  E   Q     E E   E     +E  E E E E E E E
e|-----------------------------|-----------------------|
B|--(8)--7--5--[7]----5-3---5--|--(5)-3-2-3-2----------|
G|-----------------------------|--------------4---4b6r=|
D|-----------------------------|-----------------------|
A|-----------------------------|-----------------------|
E|-----------------------------|-----------------------|

  ~~~~~~
 |  +E   E  E   Q     E E   E     +E  E E E E E E E
e|-----------------------------|-----------------------|
B|-----------------------------|-----------------------|
G|-----------------------------|-----------------------|
D|-(14)-12-11-[12]---11-9-[11]-|-(11)-9-7-9-7-5---5b7r=|
A|-----------------------------|-----------------------|
E|-----------------------------|-----------------------|

           N.C.                                            E5
    E  E E E  E     E    E    E    E E    E    E  E E   E  E
e|------------------------------|-------------------------------|
B|------------------------------|-------------------------------|
G|------------------------------|-------------------------------|
D|------------4-----------------|--5-4------------5-4------9----|
A|--5--5---5--------5---------5-|--------------5--------5--7----|
E|--3--3------------------------|-------------------------------|

             |------3------|      |----3----|
| +H         Q        Q    Q      Q    Q    Q    Q    +Q     a
e|-----------19b22====19---19---|-19---19---19---19r==(19)---17h|
B|------------------------------|-------------------------------|
G|-(4)--------------------------|-------------------------------|
D|------------------------------|-------------------------------|
A|------------------------------|-------------------------------|
E|------------------------------|-------------------------------|

             |------3------|      |----3----|
| +H         Q        Q    Q      Q    Q    Q    Q    +Q
e|-----------19b22====19---19---|-19---19---19---19r==(19)------|
B|------------------------------|-------------------------------|
G|------------------------------|-------------------------------|
D|-(5)--------------------------|-------------------------------|
A|------------------------------|-------------------------------|
E|------------------------------|-------------------------------|

                         B5          D5                 G5
                         PM--------|
     +E  E   E   E   E E E E     E E  E  Q     E E       E
e|----------------------------|------------------------------|
B|----------------------------|------------------------------|
G|----------------------------|------------------------------|
D|----(9)-9-------9---9-------|-----------------7------------|
A|----(7)-7-------7---7---9-9-|---9-9-12\-------5---------5--|
E|------------------------7-7-|---7-7-10\-----------------3--|

                      ~~~
 |     Q     +Q       H           H         E   Q     a   E
e|----19----(19)\-------------|---------------/17---(17)s15--|
B|------------------/15-------|-/17--------------------------|
G|----------------------------|------------------------------|
D|----------------------------|------------------------------|
A|----------------------------|------------------------------|
E|----------------------------|------------------------------|

                      ~~~
 |  a  Q     +Q       H           H         E   Q     a   E
e|-17h19----(19)\-------------|---------------/17---(17)s15--|
B|------------------/15-------|-/17--------------------------|
G|----------------------------|------------------------------|
D|----------------------------|------------------------------|
A|----------------------------|------------------------------|
E|----------------------------|------------------------------|

[Interlude]
        (Am)                            (G)
(Gtr 5)
    +E  E E E H       +W                W          H    E E E E
e|-----------------|------------------|----------|---------------|
B|----------1-0----|--(0)-------------|----------|------------1--|
G|------0-2--------|------------------|-0--------|--------0-2----|
D|-----------------|------------------|----------|-3----3--------|
A|--(5)------------|------------------|----------|---------------|
E|--(3)------------|------------------|----------|---------------|

 |  +W                +H.       +Q      W          W
e|-(15)------------|-(15)------(15)\--|----------|---------------|
B|-----------------|------------------|----------|---------------|
G|-----------------|------------------|----------|---------------|
D|-----------------|------------------|----------|---------------|
A|-----------------|------------------|----------|---------------|
E|-----------------|------------------|----------|---------------|

   (Am)                    (G)
   W          +W           W          H      E E E E
e|----------|------------|----------|----------------|
B|-0--------|-(0)--------|----------|--------------1-|
G|----------|------------|-0--------|----------0-2---|
D|----------|------------|----------|-3------3-------|
A|----------|------------|----------|----------------|
E|----------|------------|----------|----------------|

(Gtr 6)
 | W           W           W          E q  q   q   E
e|----------|------------|----------|----------------|
B|----------|------------|----------|----------------|
G|----------|------------|----------|------0-------0-|
D|----------|------------|----------|----------------|
A|----------|------------|----------|---3------3-----|
E|----------|------------|----------|----------------|

   (Am)                               (G)
   W                 +H..             E   +H..             E   +H       E E E E
e|-----------------|--------------------|--------------------|------------------|
B|-0---------------|-(0)----------------|--------------------|----------------1-|
G|-----------------|------------------0-|-(0)----------------|------------0-2---|
D|-----------------|--------------------|------------------3-|-(3)------3-------|
A|-----------------|--------------------|--------------------|------------------|
E|-----------------|--------------------|--------------------|------------------|

 | E E E E E E E E    E   E E E E E E E    E   E E E E E E E    E  E Q  E E E E
e|-----------------|--------------------|--------------------|------------------|
B|-------1-------1-|----------1---------|--------------------|----------------1-|
G|-----------------|------------------0-|----------0-------0-|------------------|
D|-----0-------0---|--------0-------0---|--------0-------0---|--2--0--------0---|
A|---3-------3-----|------3-------3-----|------3-------3-----|-------2----3-----|
E|-----------------|--------------------|--------------------|------------------|

   (Am)                               (G)
   W                 +H..             E
e|-----------------|--------------------|
B|-0---------------|-(0)----------------|
G|-----------------|------------------0-|
D|-----------------|--------------------|
A|-----------------|--------------------|
E|-----------------|--------------------|

 | E E E E E E E E    E   E E E E E E E
e|-----------------|--------------------|
B|-------1-------1-|----------1---------|
G|-----------------|------------------0-|
D|-----0-------0---|--------0-------0---|
A|---3-------3-----|------3-------3-----|
E|-----------------|--------------------|

   +H..             E   +W
e|--------------------|------------------|
B|--------------------|------------------|
G|-(0)----------------|------------------|
D|------------------3-|-(3)--------------|
A|--------------------|------------------|
E|--------------------|------------------|

 |  E   E E E E E E E    E  E E E E E Q
e|--------------------|------------------|
B|--------------------|------------------|
G|----------0-------0-|------------------|
D|--------0-------0---|-------0-3-2-0----|
A|------3-------3-----|-----3---------2--|
E|--------------------|------------------|

[Bridge]
   C5
(Gtr 1)
    E  E  E  E  E  E  E  E    E  E  E  E  E  E  E  E
e|-------------------------|-------------------------|
B|-------------------------|-------------------------|
G|-------------------------|-------------------------|
D|--5--5--------0--2--3--2-|--5--3--5--3--2--3--2--0-|
A|--3--3-----3-------------|-------------------------|
E|-------------------------|-------------------------|

(Gtr 2)
 |  E  E  E  E  E  E  E  E    E  E  E  E  E  E  E  E
e|-------------------------|-13----12----------------|
B|-15-13-------15-13-------|----13----13-15-13-------|
G|-------14-12-------14-12-|-------------------14-12-|
D|-------------------------|-------------------------|
A|-------------------------|-------------------------|
E|-------------------------|-------------------------|

   A5
    E  E  E  E  E  E  E  E    E  E  E  E  E  E  E  E
e|-------------------------|-------------------------|
B|-------------------------|-------------------------|
G|-------------------------|-------------------------|
D|-------------------------|-------------------------|
A|--7--7-----7--8--7--5--7-|-----7--5----------------|
E|--5--5-------------------|-----------8--7--5--5--3-|

 |  E  E  E  E  E  E  E  E    E  E  E  E  E  E  E  E
e|-------------------------|-13----12----------------|
B|-15-13-------15-13-------|----13----13-15-13-------|
G|-------14-12-------14-12-|-------------------14-12-|
D|-------------------------|-------------------------|
A|-------------------------|-------------------------|
E|-------------------------|-------------------------|

   G5
    E  E  E  E  E  E  E  E    E  E  E  E  E  E  E  E
e|-------------------------|-------------------------|
B|-------------------------|-------------------------|
G|-------------------------|-------------------------|
D|-------------------------|-------------------------|
A|--5--5--------2----------|--3-----------3--5--3--2-|
E|--3--3-----3-----3-----3-|-----3-----3-------------|

 |  E  E  E  E  E  E  E  E    E  E  E  E  E  E  E  E
e|-------------------------|-13----12----------------|
B|-15-13-------15-13-------|----13----13-15-13-------|
G|-------14-12-------14-12-|-------------------14-12-|
D|-------------------------|-------------------------|
A|-------------------------|-------------------------|
E|-------------------------|-------------------------|

    E  E  E  E  E  E  E  E    +W
e|-------------------------|---------|
B|-------------------------|---------|
G|-------------------------|---------|
D|-------------------------|---------|
A|--------0--2--3--2--0----|---------|
E|--3--3-----------------3-|--(3)----|

 |  E  E  E  E  E  E  E  E    +W
e|-12-10-13-12-10----------|---------|
B|----------------13-12----|---------|
G|----------------------12-|-(12)----|
D|-------------------------|---------|
A|-------------------------|---------|
E|-------------------------|---------|

[Out-Chorus]
  F5       N.C.                      D5
 4/4
   PM------------------------------|
   E  E E  E E E E E   E E E E E E E E
e|--------------------|-----------------|
B|--------------------|-----------------|
G|--------------------|-----------------|
D|------------2-------|-3-2-----3-2---7-|
A|--3--3----3---3---3-|-------3-----3-5-|
E|--1--1--------------|-----------------|

 |  Q    H.             W
e|--------------------|-----------------|
B|--------------------|-----------------|
G|-10\----------------|-----------------|
D|--------------------|-----------------|
A|--------------------|-----------------|
E|--------------------|-----------------|

                         A5                  C5    F5
   +E   E  E  E  E  Q     E    E  Q     E  E  E  E E
e|--------------------------|-------------------------|
B|--------------------------|-------------------------|
G|--------------------------|-------------------------|
D|-(7)--7-----7--7----------|-----------------5-------|
A|-(5)--5-----5--5--------7-|--7--------7-----3----3--|
E|------------------------5-|--5--------5----------1--|

 |  E   E  E  E  E  E  E  E    E  E  E  E  E  Q    E
e|--------------------------|-------------------------|
B|--------------18-------17-|-------------------------|
G|-----17-------------------|-------19-------17\------|
D|--------19-19----19-19----|-19-19----19-19----------|
A|--------------------------|----------------------3--|
E|--------------------------|----------------------1--|

           N.C.                      D5
   +E  E E E E E E E   E E E E E E E E
e|-------------------|-----------------|
B|-------------------|-----------------|
G|-------------------|-----------------|
D|-----------2-------|-3-2-----3-2---7-|
A|-(3)-3---3---3---3-|-------3-----3-5-|
E|-(1)-1-------------|-----------------|

             PM|   PM--|   PM|     PM---
 | +E  E E E E E E E   E E E E E E E E
e|-------------------|---3-----1p0-----|
B|---------------1---|-----1-----------|
G|---------2-------2-|-------2-----2---|
D|-------------------|---------------0-|
A|-(3)-3-----3-3-----|-3---------------|
E|-(1)-1-------------|-----------------|

                     A5            C5                 F5
                      PM--------|
  +E   E  E  E  E  E  E  E    E  E  E   Q     E   E   E
e|--------------------------|----------------------------|
B|--------------------------|----------------------------|
G|--------------------------|----------------------------|
D|-(7)--7-----7--7----------|--------5\--------5---------|
A|-(5)--5-----5--5-----7--7-|--7--7--3\--------3-------3-|
E|---------------------5--5-|--5--5--------------------1-|

|-----------|      PM|        PM|       PM|
  +E   E  E  E  E  E  E  E    E  E  E   E  E  E  +E   E
e|--------------------------|----------------------------|
B|--------------18-------17-|----------------------------|
G|-----17-------------------|-------19--------17-(17)\---|
D|-(0)----19-19----19-19----|-19-19-----19-19------------|
A|--------------------------|--------------------------3-|
E|--------------------------|--------------------------1-|

             N.C.                      D5
     +E  E E E E E E E   E E E E E E E E
e|--------------------|-----------------|
B|o-------------------|-----------------|
G|--------------------|-----------------|
D|------------2-------|-3-2-----3-2---7-|
A|o-(3)-3---3---3---3-|-------3-----3-5-|
E|--(1)-1-------------|-----------------|

 |   +E  E E E E E E E   E E E E E E E E
e|--------------------|---3-----1p0-----|
B|o---------------1---|-----1-----------|
G|----------2-------2-|-------2-----2---|
D|--------------------|---------------0-|
A|o-(3)-3-----3-3-----|-3---------------|
E|--(1)-1-------------|-----------------|

                         A5                  C5       F5
   +E   E  E  E  E  Q     E    E  E  E  E  E  E   E   E
e|--------------------------|----------------------------|
B|--------------------------|----------------------------|
G|--------------------------|----------------------------|
D|-(7)--7-----7--7----------|-----------------5----------|
A|-(5)--5-----5--5--------7-|--7--------7-----3-------3--|
E|------------------------5-|--5--------5-------------1--|

 | +E   E  E  E  E  E  E  E    E  E  E  E  E  E  +E   E
e|--------------------------|----------------------------|
B|--------------18-------17-|----------------------------|
G|-----17-------------------|-------19-------17-(17)\----|
D|-(0)----19-19----19-19----|-19-19----19-19-------------|
A|--------------------------|-------------------------3--|
E|--------------------------|-------------------------1--|

           N.C.                      D5
   +E  E E E E E E E   E E E E E E E E
e|-------------------|-----------------|
B|-------------------|-----------------|
G|-------------------|-----------------|
D|-----------2-------|-3-2-----3-2---7-|
A|-(3)-3---3---3---3-|-------3-----3-5-|
E|-(1)-1-------------|-----------------|

             PM|   PM--|   PM|     PM---
 | +E  E E E E E E E   E E E E E E E E
e|-------------------|---3-----1p0-----|
B|---------------1---|-----1-----------|
G|---------2-------2-|-------2-----2---|
D|-------------------|---------------0-|
A|-(3)-3-----3-3-----|-3---------------|
E|-(1)-1-------------|-----------------|

                     A5            C5                 F5
                      PM--------|
  +E   E  E  E  E  E  E  E    E  E  E   Q     E   E   E  (3x)
e|--------------------------|-----------------------------|
B|--------------------------|----------------------------o|
G|--------------------------|-----------------------------|
D|-(7)--7-----7--7----------|--------5\--------5----------|
A|-(5)--5-----5--5-----7--7-|--7--7--3\--------3-------3-o|
E|---------------------5--5-|--5--5--------------------1--|

|-----------|      PM|        PM|       PM|
| +E   E  E  E  E  E  E  E    E  E  E   E  E  E  +E   E  (3x)
e|--------------------------|-----------------------------|
B|--------------18-------17-|----------------------------o|
G|-----17-------------------|-------19--------17-(17)\----|
D|-(0)----19-19----19-19----|-19-19-----19-19-------------|
A|--------------------------|--------------------------3-o|
E|--------------------------|--------------------------1--|

  D5               A5        C5
                   PM------|
  E  E  E  E  E  E E E   E E Q   H
e|----------------------|--------------*|
B|----------------------|--------------*|
G|----------------------|--------------*|
D|-7--7-----7--7--------|-----5\-------*|
A|-5--5-----5--5----7-7-|-7-7-3\-------*|
E|------------------5-5-|-5-5----------*|

|    PM---|          PM----|
| E  E  E  E  Q    E E   E E Q   H
e|----------------------|--------------*|
B|------------18\-------|--------------*|
G|---17-----------------|--------------*|
D|------19-19-----------|-----5\-------*|
A|------------------7-7-|-7-7-3\-------*|
E|------------------5-5-|-5-5----------*|


************************************

| ~    Vibrato
| \    Slide down
| (n)  Ghost note
| p    Pull-off
| PM   Palm mute
| /    Slide up
| h    Hammer-on
| [n]  Artificial harmonic (Pinch harmonic)
| b    Bend
| *    Natural harmonic

************************************
Suggest correction
comments
print report bad tab
9 comments total. Showing first comments.
0 reply
shugo449 530 Sep 01, 2006 06:16 AM

nice tab man

0 reply
llama_slap 338 Sep 09, 2006 06:40 PM

wow, this is like perfect. nice job dude!

0 reply
georgeow 742 Oct 18, 2006 01:46 PM

if you have the book, tab it! great tab though.

guest
You may want to rate the tab now too:
select rating
Wanna post a correction for this tab? Suggest correction