Oops, an error
Loading. Please wait.

The Hound intro tab

version 1
version 1

Intro

Whole song

Interactive

1,718 views 1 this week
6 commentsread comments
1 2 3 4 5
1 last vote to show rating
add to favorites
×
Save as Personal and add changes to this tab that will be seen only by you. Learn more ›
×
You can save this tab as Personal to edit and correct it or add notes. All changes will be seen only by you. Learn more »
launch autoscroll
font size
0
reset
how to read this tab
guitar tuner
edit
Autoscroll
slow
fast
+/-
esc
set tempo
stop
Author
Difficulty
-------------------------------------------------------------------------------
                             THE HOUND - Coheed and Cambria
-------------------------------------------------------------------------------
Tabbed by: OldHairyOne
Email: chaoticharmony666@hotmail.com

Tuning: Standard

Intro

Guitar 1 (Continues through intro)
 |----------------1010101010101010------------------------------------------|
 |--------------------------------13131313131313131212121212121212----------|
 |9-9-9-9-9-9-9-9-9-9-9-9-9-9-9-9-9-9-9-9-9-9-9-9-9-9-9-9-9-9-9-9-----------|
 |--------------------------------------------------------------------------|
 |--------------------------------------------------------------------------|
 |--------------------------------------------------------------------------|

Guitar 2
 |--------------------------------------------------------------------------|
 |17p15---17p15----------------------------17p15---17p15--------------------|
 |-----16------16--14s16------------------------16------16------------------|
 |----------------------------------------------------------16-17-----------|
 |--------------------------------------------------------------------------|
 |--------------------------------------------------------------------------|

Guitar 2 (cont.)
 |----------------------------------------------------------------------------|
 |17p15--17p15----------17p15---17p15---------17p15--17p15--------------------|
 |-----16-----16--14s16------16------16-10s12-----16-----16-------------------|
 |---------------------------------------------------------16h17-16h17p16-14--|
 |----------------------------------------------------------------------------|
 |----------------------------------------------------------------------------|

Verse

Guitar 1    (4 times)                      Guitar 2 (Last 2 times), (they're
                                                      10's and 12's)
e|--------------------------------------|--------------------------------------|
B|--------------------------------------|-12101210121012101210121012101210-----|
G|-99-------77---------------555555555--|--------------------------------------|
D|-99-------77-------77------555555555--|--------------------------------------|
A|-77777777-55555555-77------333333333--|--------------------------------------|
E|-------------------55555555-----------|--------------------------------------|
   [----------P.M--------------------------------------------------------------|

Chorus

Guitar 1 (4 times)               Guitar 2 (4 times, over the E5's)

e|-----------------------------|---------------------------------------------------|
B|-----------------------------|---------------------------------------------------|
G|-----------2222--------------|---------------------------------------------------|
D|-22-22-22--2222-5-4-22-22-22-|---5--s9-7---5-7-----------------------------------|
A|-22-22-22--0000-5-4-22-22-22-|-7-------------------------------------------------|
E|-00-00-00-------3-2-00-00-00-|---------------------------------------------------|


| /  slide up
| \  slide down
| h  hammer-on
| p  pull-off
| ~  vibrato
| +  harmonic
| x  Mute note
===============================================================================
Suggest correction
Creating personal tab
Creating personal tab
You can edit any tab online and save it as your Personal.

You can edit, replace or remove any tab part or add personal notes – all changes will be seen only by you.

Personal tabs can be accessed anytime from any device, even offline.
Learn more »
Give kudos to tab author, rate the tab!
1 2 3 4 5
comments
print report bad tab
6 comments total. Showing first comments.
0 reply
zackvalo16 119 Oct 04, 2007 07:38 AM

where did u hear this song?

0 reply
OldHairyOne 56 Oct 05, 2007 08:20 AM

interwebs

0 reply
italia009 10 Oct 06, 2007 07:02 PM

http://www.mediafire.com/?0xy7hmvy8jg

free download of the studio version there, its so amazing.

guest
You may want to rate the tab now too:
select rating
Wanna post a correction for this tab? Suggest correction