Oops, an error
Loading. Please wait.

The Hound solo tab

version 1
version 1

Solo

Whole song

Interactive

918 views 1 this week
1 commentread comment
1 2 3 4 5
2 more votes to show rating
add to favorites
×
Save as Personal and add changes to this tab that will be seen only by you. Learn more ›
×
You can save this tab as Personal to edit and correct it or add notes. All changes will be seen only by you. Learn more »
launch autoscroll
font size
0
reset
how to read this tab
guitar tuner
edit
Autoscroll
slow
fast
+/-
esc
set tempo
stop
Difficulty
intermediate
im pretty sure that this is how it goes. some of the notes are jammed in there(the first 
is played super fast) but sound perfect when you play it right. sorry for my key its 
typical. first tab!good luck!

b> :bend up a step
p  :pull off
^^ :vibrato
/  :slide up to
.. :hold this note out

e----------------------------15--------------------------------------------|
b----15b>-15b>-15p12----12-13--13^^--12--13--12----------------------------|
g--------------------15-------------------------14-14^^-14p12-12-14-14>-14-|
d--------------------------------------------------------------------------|
a--------------------------------------------------------------------------|
E--------------------------------------------------------------------------|


e-------------------------------------------------------------------------|
b-------------------------------------------------------------------------|
g-12----------------------------------------------------------------------|
d---14^^-12-14-12---12-------------------------------------------------12-|
a-----------------14---14--12--10-12-10-12-10-12/14-10-10-10/15-14-12-----|
E-------------------------------------------------------------------------|

e--------------------------------7-----------------------------------------|
b----------------------------7-8---8-8^^--7-8-7----------------------------|
g-----------------------------------------------9-9^^----------------------|
d--------------------------------------------------------------------------|
a-14^^--12-14^^-12-10^^^------------------------------10-12-14-12-10-9-----|
E--------------------------------------------------------------------------|

e-------------------------7-8-10-12-10-8-7----------------7-8-7-8-10-8-10-|
b----------7-8-10-7-8-10-------------------10-8-7-8^^--10-----------------|
g-------------------------------------------------------------------------|
d-------------------------------------------------------------------------|
a-------------------------------------------------------------------------|
E-------------------------------------------------------------------------|

e-12-10-12-13-12-13-15-15b>.........15-12-12^^----------------------------|
b-------------------------------------------------------------------------|
g-------------------------------------------------------------------------|
d-------------------------------------------------------------------------|
a-------------------------------------------------------------------------|
E-------------------------------------------------------------------------|

if played right it should sound perfect!

            
            
Suggest correction
Creating personal tab
Creating personal tab
You can edit any tab online and save it as your Personal.

You can edit, replace or remove any tab part or add personal notes – all changes will be seen only by you.

Personal tabs can be accessed anytime from any device, even offline.
Learn more »
Give kudos to tab author, rate the tab!
1 2 3 4 5
comments
print report bad tab
1 comment total.
0 reply
theEndcOmplete 10 Jul 19, 2008 10:11 PM

im the one who tabbed this out and after looking at it i made one mistake

the part 3 bars down at the very end that starts at 10 is suppossed to be played on the d string, not the a

guest
Wanna post a correction for this tab? Suggest correction