Oops, an error
Loading. Please wait.

The Light And The Glass bass

version 1
version 1

Whole song

2,668 views 6 this week
2 commentsread comments
1 2 3 4 5
1 last vote to show rating
add to favorites
×
Save as Personal and add changes to this tab that will be seen only by you. Learn more ›
×
You can save this tab as Personal to edit and correct it or add notes. All changes will be seen only by you. Learn more »
launch autoscroll
font size
0
reset
guitar tuner
edit
Autoscroll
slow
fast
+/-
esc
set tempo
stop
Author
Gtr I (E A D G) - 'elec.'
Gtr II (E A D G B E) - '2 keyb. arr. for 1 gtr.'

 Intro
  Q.=45
 6/8
  Gtr I
  H.        H.        H.        H.
|---------|---------|---------|-------|
|---------|---------|---------|-------|
|---------|---------|---------|-------|
|---------|---------|-3-------|-3-----|


  H.        +H.        H.        Q.   Q.
|---------|----------|---------|-----------|
|---------|----------|---------|-----------|
|---------|----------|---------|-2----4----|
|-7-------|-(7)------|-3-------|-----------|


  Q.   Q.     Q.   E E E
|-----------|------------||
|-----------|------------||
|-5---------|------0-2-4-||
|------3----|-3----------||


 Verse
  H.        H.        H.        H.
|---------|---------|---------|-------|
|---------|---------|---------|-------|
|-5-------|-5-------|---------|-------|
|---------|---------|-3-------|-3-----|


  H.        H.        Q.   Q.     Q.   Q.
|---------|---------|-----------|-----------|
|---------|---------|-----------|-----------|
|---------|---------|-5---------|-2----4----|
|-7-------|-7-------|------3----|-----------|


  Q.   Q.     Q.   E E E
|-----------|------------|
|-----------|------------|
|-5---------|------0-2-4-|
|------3----|-3----------|


  H.        H.                   H.              H.
|---------|--------------------|---------------|---------------|
|---------|--------------------|---------------|---------------|
|-5-------|-5------------------|---------------|---------------|
|---------|--------------------|-3-------------|-3-------------|
|
|           Gtr II
| H.        E  E E  E   E  S S   E   E. Q..      E   E E E E E
|---------|--------------------|---------------|---------------|
|---------|-8--7-5-10-(10)-----|-5--12---------|-7--12---8-7-8-|
|---------|--------------------|---------------|-7-----9---6---|
|---------|-5--4-2-------------|---------------|-----7-9-----7-|
|---------|---------5---4--2p0-|-2-------------|---------------|
|---------|--------------------|---------------|---------------|


  H.          H.              Q.   Q.     Q.      Q.
|-----------|---------------|-----------|------------------|
|-----------|---------------|-----------|------------------|
|-----------|---------------|-5---------|-2-------4--------|
|-7---------|-7-------------|------3----|------------------|
|
| Q.   Q.     E  E E. S E E   Q.   Q.     E  E E.    S E E
|-----------|---------------|-----------|------------------|
|-----------|---------------|-----------|------------------|
|-9---------|-7---------6---|-9---------|-7------------6---|
|-9---------|----7-9------7-|-9---------|----7-9---------7-|
|-----------|---------------|-----------|------------------|
|-----------|---------------|-----------|------------------|


  Q.     Q.        Q.     E  E    E
|----------------|------------------|
|----------------|------------------|
|-5--------------|--------0--2----4-|
|--------3-------|-3----------------|
|
| E. S E E  E. S   E  E E E.   E.
|----------------|------------------|
|----------------|------------------|
|------7---------|----6-------------|
|-9----9-7--9----|----7-7-9---------|
|--------9--9----|------9-9---------|
|----------------|------------------|


   H.             H.               H.             H.
|---------------|----------------|--------------|---------------|
|---------------|----------------|--------------|---------------|
|--5------------|-5--------------|--------------|---------------|
|---------------|----------------|-3------------|-3-------------|
|
|  E  E E E E E   E  E E E E S S   E  E E E E E   Q    H
|--9--5-7-2-5-0-|-7--2-3-5-------|-5--5-7-3-5-5-|-7-------------|
|-10--5-7-2-5-0-|-7--2-3-5-------|-5--5-7-3-5-5-|-7-------------|
|---------------|----------------|--------------|-7---------6---|
|---------------|-5--4-2---------|--------------|----7-9------7-|
|---------------|--------5-4-2p0-|-2------------|---------------|
|---------------|----------------|--------------|---------------|
                                                  E  E E. S E E


  H.                H.              Q.     Q.         Q.      Q.
|----------------|----------------|----------------|-------------------|
|----------------|----------------|----------------|-------------------|
|----------------|----------------|-5--------------|--2-------4--------|
|-7--------------|--7-------------|--------3-------|-------------------|
|
| E  E E E   E E    Q    H          E  E E E   E E    Q    H
|-5--5-7-2--10-5-|--9-------------|-5--5-7-2--10-5-|--9----------------|
|-5--5-7-2--10-5-|-10-------------|-5--5-7-2--10-5-|-10----------------|
|-9--------------|--7---------6---|-9--------------|--7------------6---|
|-9--------------|-----7-9------7-|-9--------------|-----7-9---------7-|
|----------------|----------------|----------------|-------------------|
|----------------|----------------|----------------|-------------------|
  Q.     Q.         E  E E. S E E   Q.     Q.         E  E E.    S E E


   Q.     Q.        +H.
|-----------------|--------------||
|-----------------|--------------||
|--5--------------|--------------||
|---------3-------|-(3)----------||
|
|  E  E E E   E E    Q    H
|--9--5-7----10-5-|--7-----------||
|-10--5-7----10-5-|--7-----------||
|-----------------|--------------||
|--9----9---------|-----7--------||
|---------9---9---|-------9-9----||
|-----------------|--------------||
                     E  E E E Q


   Pre-Chorus
    E E E E E E   E E E S E S E   E E E E E E   E E E S E S E
||--------------|---------------|-------------|----------------||
||o-------------|---------------|-------------|---------------o||
||o-------------|---------------|-------------|---------------o||
||--5-5-5-5-5-5-|-5-5-5-5-5-5-5-|-3-3-3-3-3-3-|-3-3-3-3-3-3-3--||


   Chorus Part 1
    Faster Q.=47
    S S S S S S S S S S S S   S S S S S S S S S S S S  4x
||--------------------------|--------------------------||
||o-------------------------|-------------------------o||
||o-------9-7-5-7-7-5-0-0-0-|-------------------------o||
||--7-7-7-------------------|-5-5-5-5-5-7-3-3-3-3-3-0--||


 Chorus Part 2
  $
  S E E S Q.     S E E S Q.     S E E S Q  S S   S E E S E. S S S
|--------------|--------------|----------------|------------------|
|--------------|--------------|----------------|------------------|
|--------------|--------------|----------------|------------------|
|-7-7-7-7-7----|-5-5-5-5-5----|-3-3-3-3-3--3-3-|-3-3-3-3-3--3-3-5-|


                                                             To Coda
  S E E S Q.     S E E S Q  S S   S E E S E. S S S   S E E S E. S S S
|--------------|----------------|------------------|------------------||
|--------------|----------------|------------------|------------------||
|--------------|----------------|------------------|------------------||
|-7-7-7-7-7----|-5-5-5-5-5--5h7-|-3-3-3-3-3--3-3-3-|-3-3-3-3-3--3-3-5-||


   Bridge
    S S S S S S S S S S S S   S S S S S S S S S S S S  4x
||--------------------------|--------------------------||
||o-------------------------|-------------------------o||
||o-------------5-5-5-------|-3-3---5-5---7-7---9-9---o||
||--0-0-0-7-5-7-------0-2-0-|--------------------------||


 Interlude
   S  S S S S S S S S S S S     S  S S S S S S S S S S S
|---------------------------|----------------------------|
|---------------------------|----------------------------|
|---------------------------|----------------------------|
|--5--5-5-5-5-5-5-5-5-5-5-5-|---5--5-5-5-5-5-5-5-5-5-5-5-|
|
| Gtr II
|  H.                          +H.
|-16------------------------|-(16)-----------------------|
|-17------------------------|-(17)-----------------------|
|---------------------------|----------------------------|
|---------------------------|----------------------------|
|---------------------------|----------------------------|
|---------------------------|----------------------------|


   S  S S S S S S S S S S S     S  S S S S S S S S S S S
|---------------------------|----------------------------|
|---------------------------|----------------------------|
|---------------------------|----------------------------|
|--8--8-8-8-8-8-8-8-8-8-8-8-|---8--8-8-8-8-8-8-8-8-8-8-8-|
|
|  H.                          +H.
|-19------------------------|-(19)-----------------------|
|-20------------------------|-(20)-----------------------|
|---------------------------|----------------------------|
|---------------------------|----------------------------|
|---------------------------|----------------------------|
|---------------------------|----------------------------|


   S  S S S S S S S S S S S     S  S S S S S S S S S S S
|---------------------------|----------------------------|
|---------------------------|----------------------------|
|---------------------------|----------------------------|
|--5--5-5-5-5-5-5-5-5-5-5-5-|---5--5-5-5-5-5-5-5-5-5-5-5-|
|
|  ~~~~~~~~~~~~~~~~~~~~~~~~~~~~~~~~
|  H.                          +H.
|-16------------------------|-(16)-----------------------|
|-17------------------------|-(17)-----------------------|
|---------------------------|----------------------------|
|---------------------------|----------------------------|
|---------------------------|----------------------------|
|---------------------------|----------------------------|


   H.         +H.
|----------|---------||
|----------|---------||
|----------|---------||
|--8-------|--(8)----||
|
|  H.         +H.
|----------|---------||
|-20-------|-(20)----||
|-17-------|-(17)----||
|----------|---------||
|----------|---------||
|----------|---------||


 Break
  Q.   Q.     Q.   E  S S +S  S   Q.   Q.     Q.   Q.
|-----------|-------------------|-----------|------------|
|-----------|-------------------|-----------|-4----------|
|-5----7----|-9----9--7-5-(5)---|------5----|-5----5-----|
|-----------|-----------------5-|-3---------|------------|
|
| Gtr II
| Q.   Q.     Q.   Q.             Q.   Q.     Q.   Q.
|-----------|-------------------|-----------|------------|
|-----------|-------------------|-----------|------------|
|------2----|-0-----------------|------2----|-0----------|
|-0---------|------4------------|-0---------|------4-----|
|-----------|-------------------|-----------|------------|
|-----------|-------------------|-----------|------------|


  Q.   Q.     Q.   E  S S +S  S   Q.   Q.     Q.   E  e E
|-----------|-------------------|-----------|--------------|
|-----------|-------------------|-----------|-4------------|
|-5----7----|-9----9--7-5-(5)---|------5----|-5----0--2-4--|
|-----------|-----------------5-|-3---------|--------------|
|
| Q.   Q.     Q.   Q.             Q.   Q.     Q.   Q.
|-----------|-------------------|-----------|--------------|
|-----------|-------------------|-----------|--------------|
|------2----|-0-----------------|------2----|-0------------|
|-0---------|------4------------|-0---------|------4-------|
|-----------|-------------------|-----------|--------------|
|-----------|-------------------|-----------|--------------|


   Q.      Q.         Q.      E  S  S  +S  S
|------------------|-------------------------|
|------------------|-------------------------|
|--5-------7-------|--9-------9--7--5--(5)---|
|------------------|-----------------------5-|
|
|  E.  E.  E.  E.     E.  E.  E.    E.
|-10--17--15--14---|-12--10--12----14--------|
|-10--17--15--14---|-12--10--12----14--------|
|----------2-------|--0----------------------|
|--0---------------|----------4--------------|
|------------------|-------------------------|
|------------------|-------------------------|
   Q.      Q.         Q.      Q.


   Q.      Q.         Q.      E  e     E
|------------------|---------------------|
|------------------|--4------------------|
|----------5-------|--5-------0--2-----4-|
|--3---------------|---------------------|
|
|  E.  E.  E.  E.     E.  E.  E.    E.
|-10--17--15--14---|-12--10--12----14----|
|-10--17--15--14---|-12--10--12----14----|
|----------2-------|--0------------------|
|--0---------------|----------4----------|
|------------------|---------------------|
|------------------|---------------------|
   Q.      Q.         Q.      Q.


   Q.      Q.         Q.      E  S  S  +S  S
|------------------|-------------------------|
|------------------|-------------------------|
|--5-------7-------|--9-------9--7--5--(5)---|
|------------------|-----------------------5-|
|
|  E.  E.  E.  E.     E.  E.  E.    E.
|-10--17--15--14---|-12--10--12----14--------|
|-10--17--15--14---|-12--10--12----14--------|
|----------2-------|--0----------------------|
|--0---------------|----------4--------------|
|------------------|-------------------------|
|------------------|-------------------------|
   Q.      Q.         Q.      Q.


   Q.      Q.         Q.      Q.
|------------------|------------------||
|------------------|--4---------------||
|----------5-------|--5-------5-------||
|--3---------------|------------------||
|
|  E.  E.  E.  E.     E.  E.  E.  E.
|-10--17--15--14---|-12--10--12--14---||
|-10--17--15--14---|-12--10--12--14---||
|----------2-------|--0---------------||
|--0---------------|----------4-------||
|------------------|------------------||
|------------------|------------------||
   Q.      Q.         Q.      Q.


 Chorus
  e E H      H.
|----------|-------|
|----------|-------|
|-2--------|-------|
|----------|-------|


    S S S S S S S S S S S S   S S S S S S S S S S S S
||--------------------------|--------------------------||
||o-------------------------|-------------------------o||
||o-------9-7-5-7-7-5-0-0-0-|-------------------------o||
||--7-7-7-------------------|-5-5-5-5-5-7-3-3-3-3-3-0--||


                                 D.S. al Coda
  S S S S S S S S S S S S   S S Q  S S S   S  +E
|-------------------------|------------------------||
|-------------------------|------------------------||
|-------9-7-5-7-7-5-0-0-0-|-0-0--------------------||
|-7-7-7-------------------|--------3-3-0-/15-(15)\-||


  &
  S S S S S S S S S S S S   S S S S S S S S S S S S
|-------------------------|-------------------------|
|-------------------------|-------------------------|
|-------------5-5-5-------|-3-3---5-5---7-7---9-9---|
|-0-0-0-7-5-7-------0-2-0-|-------------------------|


   S  S S  S  S S  S  S S  S  S S    S  S S  S  S S S  S S S S S
|---------------------------------|------------------------------|
|---------------------------------|------------------------------|
|------------------5--5-5---------|--3--3----5--5---7--7---9-9---|
|--0--0-0--7--5-7----------0--2-0-|------------------------------|
|
| Gtr II
|  ~~~~~~~~~~~~~~~~~~~~~~~~~~~~~~~~~~~~~~~~~~~~~
|  e.      e.      e.      e.        e.      e.     Q.
|-17------17------15------15------|-14------14-------------------|
|-15------15------14------14------|-14------14-------------------|
|---------------------------------|------------------------------|
|---------------------------------|------------------------------|
|---------------------------------|------------------------------|
|---------------------------------|------------------------------|


   S  S S  S  S S  S  S S  S  S S    S  S S  S  S S S S S S  S  S
|---------------------------------|-------------------------------|
|---------------------------------|-------------------------------|
|------------------5--5-5---------|--3--3----5--5---7-7---9--9----|
|--0--0-0--7--5-7----------0--2-0-|-------------------------------|
|
|  ~~~~~~~~~~~~~~~~~~~~~~~~~~~~~~~~~~~~~~~~~~~~~
|  e.      e.      e.      e.        e.      e.     Q        S  S
|-17------17------15------15------|-14------14--------------15-14-|
|-15------15------14------14------|-14------14--------------------|
|---------------------------------|-------------------------------|
|---------------------------------|-------------------------------|
|---------------------------------|-------------------------------|
|---------------------------------|-------------------------------|


   S  S S  S  S  S  S  S S  S S  S   S  S S S  S S S  S S S S S
|----------------------------------|----------------------------|
|----------------------------------|----------------------------|
|-------------------5--5-5---------|-3--3---5--5---7--7---9-9---|
|--0--0-0--7--5--7----------0-2--0-|----------------------------|
|
|  E.      S  S  S  S  S S  S S  S   E.     E.     Q.
|-12------10-----------------------|----------------------------|
|------------12-10-----------------|----------------------------|
|------------------12-11-9-11-9----|-9--------------------------|
|-------------------------------12-|----------------------------|
|----------------------------------|----------------------------|
|----------------------------------|----------------------------|


 Interlude
  Faster Q.=51
  H.        Q.   S S S S S S
|---------|------------------|
|---------|------------------|
|---------|------------------|
|---------|------7-7-7-7-7-8-|


    S S S S  S S S S S S  S S   S S S S  S S S S S S S S  3x
||----------------------------|---------------------------||
||o---------------------------|--------------------------o||
||o---------------------------|--------------------------o||
||--2-2-0-9-10-0-2-2-0-9-10-0-|-2-2-0-9-10-0-7-7-7-7-7-8--||


   Breakdown
   4/4
    S S S S S S S S S S S S  S  S  S  S   S S S S S S S S S S S S S S S S
||--------------------------------------|-----------------0-0--------------||
||o-------------------------------------|---------------------0-0---------o||
||o-------------------------------------|-------------------------0-0-----o||
||--5-5-5-5-7-7-7-7-8-8-8-8-10-10-10-10-|-5-5-5-5-7-7-7-7-------------0-0--||


   Interlude
    S S S S S S S S S S S S S S S S   S S S S S S S S E. S +E   E
||----------------------------------|-----------------------------|
||o---------------------------------|-----------------------------|
||o---------------------------------|-----------------7--9-(9)-10-|
||--0-0-3-0-5-3-2-3-0-0-3-0-5-3-2-3-|-0-0-3-0-5-3-2-3-------------|


  S S S S S S S S S S S S S S S S   S S S S S S S S S S S S S S S S  4x
|---------------------------------|----------------------------------||
|---------------------------------|---------------------------------o||
|---------------------------------|---------------------------------o||
|-8-8-8-8-8-8-8-8-8-8-8-8-8-8-8-8-|-8-8-8-8-8-8-8-8-8-8-8-8-8-8-8-8--||


   Outro Part 1
     S S S S S S S S S S S S S S S S    S S S S S S S S S S S S S S S S
||-----------------------------------|-----------------------------------|
||o----------------------------------|-----------------------------------|
||o----------------------------------|--5-5-5-5-5-5-5-5-5-5-5-5-5-5-5-5--|
||---0-0-0-0-0-0-0-0-0-0-0-0-0-0-0-0-|-----------------------------------|
|
|   Gtr II
|    W                                  W
||-----------------------------------|-----------------------------------|
||o--5---1-3-5---1-3-5---1-3-5---1-3-|--5---1-3-5---1-3-5---1-3-5---1-3--|
||--16-------------------------------|-14--------------------------------|
||--14-------------------------------|-12--------------------------------|
||o----------------------------------|-----------------------------------|
||-----------------------------------|-----------------------------------|
     E   S S E   S S E   S S E   S S    E   S S E   S S E   S S E   S S


   S S S S S S S S S S S S S S S S     S  S S S S S S S S S S S S S S S
|----------------------------------|-------------------------------------||
|----------------------------------|------------------------------------o||
|----------------------------------|------------------------------------o||
|--8-8-8-8-8-8-8-8-8-8-8-8-8-8-8-8-|---8--8-8-8-8-8-8-8-8-8-8-8-8-8-8-8--||
|
|  W                                  +W
|----------------------------------|-------------------------------------||
|--5---1-3-5---1-3-5---1-3-5---1-3-|---5----1-3-5---1-3-5---1-3-5---1-3-o||
|-12-------------------------------|-(12)--------------------------------||
|-10-------------------------------|-(10)--------------------------------||
|----------------------------------|------------------------------------o||
|----------------------------------|-------------------------------------||
   E   S S E   S S E   S S E   S S     E    S S E   S S E   S S E   S S


   Guitar Solo/Outro
     S S S S S S S S S S S S S S S S    S S S S S S S S S S S S S S S S
||-----------------------------------|-----------------------------------|
||o----------------------------------|-----------------------------------|
||o----------------------------------|--5-5-5-5-5-5-5-5-5-5-5-5-7-7-7-7--|
||---0-0-0-0-0-0-0-0-0-0-0-0-0-0-0-0-|-----------------------------------|
|
|    W                                  W
||-----------------------------------|-----------------------------------|
||o--5---1-3-5---1-3-5---1-3-5---1-3-|--5---1-3-5---1-3-5---1-3-5---1-3--|
||--16-------------------------------|-14--------------------------------|
||--14-------------------------------|-12--------------------------------|
||o----------------------------------|-----------------------------------|
||-----------------------------------|-----------------------------------|
     E   S S E   S S E   S S E   S S    E   S S E   S S E   S S E   S S


   S S S S S S S S S S S S S S S S     S  S S S S S S S S S S S S  S  S  S
|----------------------------------|----------------------------------------||
|----------------------------------|---------------------------------------o||
|----------------------------------|---------------------------------------o||
|--8-8-8-8-8-8-8-8-8-8-8-8-8-8-8-8-|---8--8-8-8-8-8-8-8-8-8-8-8-8-10-10-10--||
|
|  W                                  +W
|----------------------------------|----------------------------------------||
|--5---1-3-5---1-3-5---1-3-5---1-3-|---5----1-3-5---1-3-5---1-3-5-----1--3-o||
|-12-------------------------------|-(12)-----------------------------------||
|-10-------------------------------|-(10)-----------------------------------||
|----------------------------------|---------------------------------------o||
|----------------------------------|----------------------------------------||
   E   S S E   S S E   S S E   S S     E    S S E   S S E   S S E     S  S


   S S S S S S S S S S S S S S S S    S S S S S S S S S S S S S S S S
|----------------------------------|----------------------------------|
|----------------------------------|----------------------------------|
|----------------------------------|--5-5-5-5-5-5-5-5-5-5-5-5-7-7-7-7-|
|--0-0-0-0-0-0-0-0-0-0-0-0-0-0-0-0-|----------------------------------|
|
|  W                                  W
|----------------------------------|----------------------------------|
|--5---1-3-5---1-3-5---1-3-5---1-3-|--5---1-3-5---1-3-5---1-3-5---1-3-|
|-16-------------------------------|-14-------------------------------|
|-14-------------------------------|-12-------------------------------|
|----------------------------------|----------------------------------|
|----------------------------------|----------------------------------|
   E   S S E   S S E   S S E   S S    E   S S E   S S E   S S E   S S


   S S S S S S S S S S S S S S S S     S  S S S S S S S S S S S S  S  S  S
|----------------------------------|---------------------------------------|
|----------------------------------|---------------------------------------|
|----------------------------------|---------------------------------------|
|--8-8-8-8-8-8-8-8-8-8-8-8-8-8-8-8-|---8--8-8-8-8-8-8-8-8-8-8-8-8-10-10-10-|
|
|  W                                  +W
|----------------------------------|---------------------------------------|
|--5---1-3-5---1-3-5---1-3-5---1-3-|---5----1-3-5---1-3-5---1-3-5-----1--3-|
|-12-------------------------------|-(12)----------------------------------|
|-10-------------------------------|-(10)----------------------------------|
|----------------------------------|---------------------------------------|
|----------------------------------|---------------------------------------|
   E   S S E   S S E   S S E   S S     E    S S E   S S E   S S E     S  S


   S S S S S S S S S S S S S S S S    S S S S S S S S S S S S S S S S
|----------------------------------|----------------------------------|
|----------------------------------|----------------------------------|
|----------------------------------|--5-5-5-5-5-5-5-5-5-5-5-5-7-7-7-7-|
|--0-0-0-0-0-0-0-0-0-0-0-0-0-0-0-0-|----------------------------------|
|
|  W                                  W
|----------------------------------|----------------------------------|
|--5---1-3-5---1-3-5---1-3-5---1-3-|--5---1-3-5---1-3-5---1-3-5---1-3-|
|-16-------------------------------|-14-------------------------------|
|-14-------------------------------|-12-------------------------------|
|----------------------------------|----------------------------------|
|----------------------------------|----------------------------------|
   E   S S E   S S E   S S E   S S    E   S S E   S S E   S S E   S S


   S S S S S S S S S S S S S S S S     S  S S S S S S S S S S S S  S  S  S
|----------------------------------|---------------------------------------|
|----------------------------------|---------------------------------------|
|----------------------------------|---------------------------------------|
|--8-8-8-8-8-8-8-8-8-8-8-8-8-8-8-8-|---8--8-8-8-8-8-8-8-8-8-8-8-8-10-10-10-|
|
|  W                                  +W
|----------------------------------|---------------------------------------|
|--5---1-3-5---1-3-5---1-3-5---1-3-|---5----1-3-5---1-3-5---1-3-5-----1--3-|
|-12-------------------------------|-(12)----------------------------------|
|-10-------------------------------|-(10)----------------------------------|
|----------------------------------|---------------------------------------|
|----------------------------------|---------------------------------------|
   E   S S E   S S E   S S E   S S     E    S S E   S S E   S S E     S  S


   S S S S S S S S S S S S S S S S    S S S S S S S S S S S S S S S S
|----------------------------------|----------------------------------|
|----------------------------------|----------------------------------|
|----------------------------------|--5-5-5-5-5-5-5-5-5-5-5-5-7-7-7-7-|
|--0-0-0-0-0-0-0-0-0-0-0-0-0-0-0-0-|----------------------------------|
|
|  W                                  W
|----------------------------------|----------------------------------|
|--5---1-3-5---1-3-5---1-3-5---1-3-|--5---1-3-5---1-3-5---1-3-5---1-3-|
|-16-------------------------------|-14-------------------------------|
|-14-------------------------------|-12-------------------------------|
|----------------------------------|----------------------------------|
|----------------------------------|----------------------------------|
   E   S S E   S S E   S S E   S S    E   S S E   S S E   S S E   S S


   S S S S S S S S S S S S S S S S     S  S S S S S S S S S S S S  S  S  S
|----------------------------------|---------------------------------------|
|----------------------------------|---------------------------------------|
|----------------------------------|---------------------------------------|
|--8-8-8-8-8-8-8-8-8-8-8-8-8-8-8-8-|---8--8-8-8-8-8-8-8-8-8-8-8-8-10-10-10-|
|
|  W                                  +W
|----------------------------------|---------------------------------------|
|--5---1-3-5---1-3-5---1-3-5---1-3-|---5----1-3-5---1-3-5---1-3-5-----1--3-|
|-12-------------------------------|-(12)----------------------------------|
|-10-------------------------------|-(10)----------------------------------|
|----------------------------------|---------------------------------------|
|----------------------------------|---------------------------------------|
   E   S S E   S S E   S S E   S S     E    S S E   S S E   S S E     S  S


  Gtr II
   W                          W
|--------------------------|--------------------------|
|--5-1-3-5-1-3-5-1-3-5-1-3-|--5-1-3-5-1-3-5-1-3-5-1-3-|
|-16-----------------------|-14-----------------------|
|-14-----------------------|-12-----------------------|
|--------------------------|--------------------------|
|--------------------------|--------------------------|
   E S S E S S E S S E S S    E S S E S S E S S E S S


   W                          +W
|--------------------------|----------------------------|
|--5-1-3-5-1-3-5-1-3-5-1-3-|---5--1-3-5-1-3-5-1-3-5-1-3-|
|-12-----------------------|-(12)-----------------------|
|-10-----------------------|-(10)-----------------------|
|--------------------------|----------------------------|
|--------------------------|----------------------------|
   E S S E S S E S S E S S     E  S S E S S E S S E S S


   W                            W
|-19-------------------------|-17-------------------------------|
|--5-1-3-5-1-3-5-1-3-5-0-7-0-|--5-0-3-0-5-0-7-0-8-0-7-5-3-0-1-3-|
|-16-------------------------|-14-------------------------------|
|-14-------------------------|-12-------------------------------|
|----------------------------|----------------------------------|
|----------------------------|----------------------------------|
   E S S E S S E S S S S S S    S S S S S S S S S S S S S S S S


                   H.=H
   W                                  +W
|-15-------------------------------|-(15)-------------------------------|
|--5-0-1-3-5-0-1-3-5-3-1-0-1-0-----|------------------------------------|
|------------------------------2-0-|---2--0-----0-----------------------|
|-17-------------------------------|-(17)---4-2---4-2-0-2-0-----0-------|
|----------------------------------|------------------------3-2---3-2-0-|
|-20-------------------------------|-(20)-------------------------------|
   S S S S S S S S S S S S S S S S     S  S S S S S S S S S S S S S S S


                 Free Time Q=40
 3/8            4/4
   +Q.            W
|-(15)---------|-19----*|
|--------------|-------*|
|--------------|-16----*|
|-(17)---------|-14----*|
|---3--2-0-----|-------*|
|-(20)-----3-2-|--0----*|
    S  S S S E


Duration Legend
---------------
W - whole; H - half; Q - quarter; E - 8th; S - 16th; T - 32nd; X - 64th; a - acciaccatura
+ - note tied to previous; . - note dotted; .. - note double dotted
Uncapitalized letters represent notes that are staccato (1/2 duration)
Irregular groupings are notated above the duration line
Duration letters will always appear directly above the note/fret number it represents the
duration for.  Duration letters with no fret number below them represent rests.  Multi-
bar rests are notated in the form Wxn, where n is the number of bars to rest for.  Low
melody durations appear below the staff

Tablature Legend
----------------
 h   - hammer-on
 p   - pull-off
 b   - bend
 pb  - pre-bend
 r   - bend release (if no number after the r, then release immediately)
 /\  - slide into or out of (from/to "nowhere")
 s   - legato slide
 S   - shift slide
  - natural harmonic
[n]  - artificial harmonic
n(n) - tapped harmonic
 ~   - vibrato
 tr  - trill
 T   - tap
 TP  - trem. picking
 PM  - palm muting
\n/  - tremolo bar dip; n = amount to dip
 \n  - tremolo bar down
 n/  - tremolo bar up
/n\  - tremolo bar inverted dip
 =   - hold bend; also acts as connecting device for hammers/pulls
 <>  - volume swell (louder/softer)
 x   - on rhythm slash represents muted slash
 o   - on rhythm slash represents single note slash

Misc Legend
-----------
 |  - bar
||  - double bar
||o - repeat start
o|| - repeat end
*|  - double bar (ending)
 :  - bar (freetime)
 $  - Segno
 &  - Coda
Tempo markers -  = BPM(8/16=s8/s16), where s8 = swing 8ths, s16 = swing 16ths

            
            
Suggest correction
Creating personal tab
Creating personal tab
You can edit any tab online and save it as your Personal.

You can edit, replace or remove any tab part or add personal notes – all changes will be seen only by you.

Personal tabs can be accessed anytime from any device, even offline.
Learn more »
Give kudos to tab author, rate the tab!
1 2 3 4 5
comments
print report bad tab
2 comments total.
0 reply
Warwick91 92 Jul 27, 2007 01:45 PM

This is any incredible tab 99-100%

0 reply
Warwick91 92 Jul 27, 2007 01:45 PM

woops i meant
This is a incredible tab :)

guest
You may want to rate the tab now too:
select rating
Wanna post a correction for this tab? Suggest correction