Oops, an error
Loading. Please wait.

The Light And The Glass Live Acoustic tab

version 2
version 2

Whole song

391 views 3 this week
no commentswrite comment
1 2 3 4 5
2 more votes to show rating
add to favorites
×
Save as Personal and add changes to this tab that will be seen only by you. Learn more ›
×
You can save this tab as Personal to edit and correct it or add notes. All changes will be seen only by you. Learn more »
launch autoscroll
font size
0
reset
how to read this tab
guitar tuner
edit
Autoscroll
slow
fast
+/-
esc
set tempo
stop
Author
Difficulty
Tabbed by: VernalEndymion
Instagram: gingerfish365
Coheed & Cambria

Tuning: Standard eBGDAE

This tab is based on Claudio's performance at the Starland Ballroom. I tried making the tab as clear as i 
could. Tried to avoid using the "X" that marks how many times you have to strum a chord so that certain 
accents during the strumming are more clear. Hope you guys (and gals) enjoy the tab and learn the song 
because it's so much fun to play! (and impresses the ladies ;) haha)



Key

.  - palm mute
/  - slide up and down to
b  - Bend
() - Natural harmonics
*  - Pinch harmonics
h  - Hammer
p  - Pull off
"  - Tremolo Picking
x  - Mute

Verse
e|---------------------------------------------------------------------------|
B|-7-----7---------------------------------------------------0-------------0-|
G|---7-----7---------0-2-0-----------------------------2-------2---------0---|
D|-----7-----7-----4-------4-------7-----7-----7-----0---0-------0-----7-----|
A|-5-----5-----4h5-----------5---5-----5-----5-----5---2---2-------7h9-------|
E|-----------------------------3-----3-----3-----3---------------------------|

Verse (cont.)
e|-----------------------------------------------------------|--|
B|-10-----10-----------------10------10------10------10------|--|
G|----0------0------------------9-------9-------9-------9----|--|
D|------0------0-----0-----0---------------------------------|X3|
A|-----------------0-----0-----------------------------------|--|
E|-10-----10-----7-----9-----10---10-10---10-10---10-10---10-|--|

Verse (cont.)
e|---------------------------------------------------------------------------|
B|-7-----7---------------------------------------------------0-------------0-|
G|---7-----7---------0-2-0-----------------------------2-------2---------0---|
D|-----7-----7-----4-------4-------7-----7-----7-----0---0-------0-----7-----|
A|-5-----5-----4h5-----------5---5-----5-----5-----5---2---2-------7h9-------|
E|-----------------------------3-----3-----3-----3---------------------------|

Verse (cont.)
e|----------------------------------------------------|
B|-10-----10-----------------10------10------10---10/-|
G|----0------0------------------9-------9-------9--9/-|
D|------0------0-----0-----0--------------------------|
A|-----------------0-----0----------------------------|
E|-10-----10-----7-----9-----10---10-10---10-10---10/-|

Prechorus
e|----------------------------------------------3--3-3-3-3-3--3-3-3-3-3--3-3-3-3-3--3-3-3---|--|
B|-0---0-0-0-0-0--0-0-0-0-0--0-0-0-0-0--0-0-0-0-3--3-3-3-3-3--3-3-3-3-3--3-3-3-3-3--3-3-3-0-|--|
G|-0h2-2-2-2-2-2--2-2-2-2-2--2-2-2-2-2--2-2-2-0-0--0-0-0-0-0--0-0-0-0-0--0-0-0-0-0--0-0-0-0-|--|
D|-0h2-2-2-2-2-2--2-2-2-2-2--2-2-2-2-2--2-2-2-0-0--0-0-0-0-0--0-0-0-0-0--0-0-0-0-0--0-0-0-0-|X2|
A|-0---0-0-0-0-0--0-0-0-0-0--0-0-0-0-0--0-0-0-0-2--2-2-2-2-2--2-2-2-2-2--2-2-2-2-2--2-2-2-0-|--|
E|----------------------------------------------3--3-3-3-3-3--3-3-3-3-3--3-3-3-3-3--3-3-3---|--|

Chorus
e|-------------------------------------------------------|--|
B|-------------------------------------------------------|--|
G|-------------------------------------------------------|--|
D|-3-3-3-3-3-3-3-3-3-3-3-3-0-4-4-4-4-4-4-----------------|X3|
A|-2-2-2-2-2-2-0-0-0-0-0-0-0-0-0-0-0-0-0-0-5-5-5-5-5-5-0-|--|
E|---------------------------5-5-5-5-5-5-0-3-3-3-3-3-3-0-|--|
   . . . . . . . . . . . . . . . . . . . . . . . . . .

Chorus (cont.)
e|-------------------------------------------------------|
B|-------------------------------------------------------|
G|-------------------------------------------------------|
D|-3-3-3-3-3-3-3-3-3-3-3-3-0-4-4-4-4-4-4---0--0-0-0--0-0-|
A|-2-2-2-2-2-2-0-0-0-0-0-0-0-0-0-0-0-0-0-0-5--5-5-5--5-0-|
E|---------------------------5-5-5-5-5-5-0-3--3-3-3--3-0-|
   . . . . . . . . . . . .   . . . . . .

Bridge
e|---------------------------------------------3--3-3-3-3-3--3-3-3-3-3--3-3-3-3-3--3-3-3---|--|
B|-0--0-0-0-0-0--0-0-0-0-0--0-0-0-0-0--0-0-0-0-3--3-3-3-3-3--3-3-3-3-3--3-3-3-3-3--3-3-3---|--|
G|-0--0-0-0-0-0--0-0-0-0-0--0-0-0-0-0--0-0-0-0-0--0-0-0-0-0--0-0-0-0-0--0-0-0-0-0--0-0-0-0-|--|
D|-4--4-4-4-4-4--4-4-4-4-4--4-4-4-4-4--4-4-4-0-0--0-0-0-0-0--0-0-0-0-0--0-0-0-0-0--0-0-0-0-|X2|
A|-2--2-2-2-2-2--2-2-2-2-0--0-0-0-0-0--0-0-0-0-2--2-2-2-2-2--2-2-2-2-2--2-2-2-2-2--2-2-2-0-|--|
E|---------------------------------------------3--3-3-3-3-3--3-3-3-3-3--3-3-3-3-3--3-3-3---|--|

Phase II
e|-------------------------------------------------------------------------|--|
B|-------------------------------------------------------------------------|--|
G|--0--0-x--0--0-x-x--0--0-x--0--0-x-x--0--0-x--0--0-x-x--0--0-x--0--0-x-x-|--|
D|--0--0-x--0--0-x-x--0--0-x--0--0-x-x--0--0-x--0--0-x-x--0--0-x--0--0-x-x-|X3|
A|-10-10-x-10-10-x-x--9--9-x--9--9-x-x-10-10-x-10-10-x-x-10-10-x-10-10-x-x-|--|
E|--0--0-x--0--0-x-x-10-10-x-10-10-x-x--8--8-x--8--8-x-x--8--8-x--8--8-x-x-|--|

Phase II (cont.)
e|-----------------------------------------------------------------------|
B|-----------------------------------------------------------------------|
G|--0--0-x--0--0-x-x--0--0-x--0--0-x-x--0--0-x--0--0-x-x--0--0-x--0--0---|
D|--0--0-x--0--0-x-x--0--0-x--0--0-x-x--0--0-x--0--0-x-x--0--0-x--0--0-0-|
A|-10-10-x-10-10-x-x--9--9-x--9--9-x-x-10-10-x-10-10-x-x-10-10-x-10-10-0-|
E|--0--0-x--0--0-x-x-10-10-x-10-10-x-x--8--8-x--8--8-x-x--8--8-x--8--8-0-|

Phase III 
e|---------------------------------------------------------------------------|
B|---------------------------------------------------------------------------|
G|---------------------------------------------------------------------------|
D|----------------------0-5-(X18)-5-5-5-5-5--------------------------------5-|
A|-0h7--7-(X18)-7-7-7-7-0-3-------3-3-3-3-3-0-0h7--7-(X18)-7-7-7-7-7-0h3-3---|
E|-0h5--5-------5-5-5-5---------------------0-0h5--5-------5-5-5-5-5---------|
        .       . . . . . .       . . . . .        .       . . . . .

Phase IV 
e|-----------------------|--|----------------------------------|
B|---7----------8--------|--|---7---------8------------7\6-----|
G|-----9-(X8)-----7-(X8)-|--|-----9-(X8)----7-(X6)-7h9-----7p0-|
D|-0----------0----------|X3|-0---------0----------------------|
A|-----------------------|--|----------------------------------|
E|-----------------------|--|----------------------------------|

Chorus
e|-------------------------------------------------------|--|
B|-------------------------------------------------------|--|
G|-------------------------------------------------------|--|
D|-3-3-3-3-3-3-3-3-3-3-3-3-0-4-4-4-4-4-4-----------------|X3|
A|-2-2-2-2-2-2-0-0-0-0-0-0-0-0-0-0-0-0-0-0-5-5-5-5-5-5-0-|--|
E|---------------------------5-5-5-5-5-5-0-3-3-3-3-3-3-0-|--|
   . . . . . . . . . . . . . . . . . . . . . . . . . .

Chorus (cont.)
e|-------------------------------------------------------|
B|-------------------------------------------------------|
G|-------------------------------------------------------|
D|-3-3-3-3-3-3-3-3-3-3-3-3-0-4-4-4-4-4-4---0--0-0-0--0-0-|
A|-2-2-2-2-2-2-0-0-0-0-0-0-0-0-0-0-0-0-0-0-5--5-5-5--5-0-|
E|---------------------------5-5-5-5-5-5-0-3--3-3-3--3-0-|
   . . . . . . . . . . . .   . . . . . .

Bridge
e|---------------------------------------------3--3-3-3-3-3--3-3-3-3-3--3-3-3-3-3--3-3-3---|--|
B|-0--0-0-0-0-0--0-0-0-0-0--0-0-0-0-0--0-0-0-0-3--3-3-3-3-3--3-3-3-3-3--3-3-3-3-3--3-3-3---|--|
G|-4--4-4-4-4-4--4-4-4-4-4--4-4-4-4-4--4-4-4-4-0--0-0-0-0-0--0-0-0-0-0--0-0-0-0-0--0-0-0-0-|--|
D|-4--4-4-4-4-4--4-4-4-4-4--4-4-4-4-4--4-4-4-0-0--0-0-0-0-0--0-0-0-0-0--0-0-0-0-0--0-0-0-0-|X2|
A|-2--2-2-2-2-2--2-2-2-2-0--0-0-0-0-0--0-0-0-0-2--2-2-2-2-2--2-2-2-2-2--2-2-2-2-2--2-2-2-0-|--|
E|---------------------------------------------3--3-3-3-3-3--3-3-3-3-3--3-3-3-3-3--3-3-3---|--|

Phase II
e|-------------------------------------------------------------------------|--|
B|-------------------------------------------------------------------------|--|
G|--0--0-x--0--0-x-x--0--0-x--0--0-x-x--0--0-x--0--0-x-x--0--0-x--0--0-x-x-|--|
D|--0--0-x--0--0-x-x--0--0-x--0--0-x-x--0--0-x--0--0-x-x--0--0-x--0--0-x-x-|X3|
A|-10-10-x-10-10-x-x--9--9-x--9--9-x-x-10-10-x-10-10-x-x-10-10-x-10-10-x-x-|--|
E|--0--0-x--0--0-x-x-10-10-x-10-10-x-x--8--8-x--8--8-x-x--8--8-x--8--8-x-x-|--|

Phase II (cont.)
e|-----------------------------------------------------------------------|
B|-----------------------------------------------------------------------|
G|--0--0-x--0--0-x-x--0--0-x--0--0-x-x--0--0-x--0--0-x-x--0--0-x--0--0---|
D|--0--0-x--0--0-x-x--0--0-x--0--0-x-x--0--0-x--0--0-x-x--0--0-x--0--0-0-|
A|-10-10-x-10-10-x-x--9--9-x--9--9-x-x-10-10-x-10-10-x-x-10-10-x-10-10-0-|
E|--0--0-x--0--0-x-x-10-10-x-10-10-x-x--8--8-x--8--8-x-x--8--8-x--8--8-0-|

Phase V
e|------------------------------------------------|--|
B|----------------------------------0-0-0-0-0-----|--|
G|----------------------------------4-4-4-4-4-----|--|
D|----------------------------------4-4-4-4-4-----|X2|
A|-4-4-0-4-5-0-0-(X2)-4-4-0-4-5-0-0-2-2-2-2-2-0-0-|--|
E|-2-2-0-0-0-0-0------2-2-0-0-0-0-0-----------0-0-|--|

Phase V (cont.)
e|--------------------------------------------|
B|----------------------------------0-0-0-0-0-|
G|----------------------------------4-4-4-4-4-|
D|----------------------------------4-4-4-4-4-|
A|-4-4-0-4-5-0-0-(X2)-4-4-0-4-5-0-0-2-2-2-2-2-|
E|-2-2-0-0-0-0-0------2-2-0-0-0-0-0-----------|

Phase VI
e|---------------------------------------------------------------|
B|-------------------------------------------------0-0-0-0-0-0-0-|
G|-0h2-2-2-3-3-3-3-5-5-5-5-3-3-3-3-2-2-2-2-3-3-3-3-0-0-0-0-0-0-0-|
D|-0h2-2-2-2-2-2-2-2-2-2-2-2-2-2-2-2-2-2-2-2-2-2-2-0-0-0-0-0-0-0-|
A|-0---0-0-0-0-0-0-0-0-0-0-0-0-0-0-0-0-0-0-0-0-0-0-0-0-0-0-0-0-0-|
E|---------------------------------------------------------------|
       . . . . . . . . . . . . . . . . . . . . . .                         

Phase VI (cont.)
e|---------------------------------------------------------------------|
B|-------------------------------------------------0-0-0-0-0-0--0--0-0-|
G|-0h2-2-2-3-3-3-3-5-5-5-5-3-3-3-3-2-2-2-2-3-3-3-3-0-0-0-0-0-0--0--0-0-|
D|-0h2-2-2-2-2-2-2-2-2-2-2-2-2-2-2-2-2-2-2-2-2-2-2-0-0-0-0-0-0--0--0-0-|
A|-0---0-0-0-0-0-0-0-0-0-0-0-0-0-0-0-0-0-0-0-0-0-0-0-0-0-0-0-0--0--0-0-|
E|---------------------------------------------------------------------|
       . . . . . . . . . . . . . . . . . . . . . .                        

Phase VII
e|-------------------------------------------------------------------------------------------------------->
B|-------------------------------------------------------------------------------------------------------->
G|-12-12-12-12-12-12--12--12-10--11-11-11-11-11-11--11--11-11--9-9-9-9-9-9-9-------9-9-9-11-11-11-12-12--->
D|--0--0--0--0--0--0---0---0--0---0--0--0--0--0--0---0---0--0--0-0-0-0-0-0-0--0-0--0-0-0--0--0--0--0--0-0->
A|-10-10-10-10-10-10--10--10-10---9--9--9--9--9--9---9---9--9--7-7-7-7-7-7-7--0-0--7-7-7--9--9--9-10-10-0->
E|--0--0--0--0--0--0---0---0--0---0--0--0--0--0--0---0---0--0--0-0-0-0-0-0-0--0-0--0-0-0--0--0--0--0--0-0->

Phase VII (cont.)
e|------------|--|
B|------------|--|
G|------------|--|
D|-10-------0-|X4|
A|-11-(X31)-0-|--|
E|--9-------0-|--|

Phase VII
e|-----------------------------------------------|--|
B|-----------------------------------------------|--|
G|-----------------------------------------------|--|
D|-------------------------------------10--------|X2|
A|-10-(X15)-0--12-(X12)-12/14-14-14-0--11-(31)-0-|--|
E|--0-------0--10-------10/12-12-12-0---9------0-|--|

Phase VII (cont.)
e|---------------------------------------------|
B|---------------------------------------------|
G|---------------------------------------------|
D|-------------------------------------10------|
A|-10-(X15)-0--12-(X12)-12/14-14-14-0--11-(18)-|
E|--0-------0--10-------10/12-12-12-0---9------|



            
            
Suggest correction
Creating personal tab
Creating personal tab
You can edit any tab online and save it as your Personal.

You can edit, replace or remove any tab part or add personal notes – all changes will be seen only by you.

Personal tabs can be accessed anytime from any device, even offline.
Learn more »
Give kudos to tab author, rate the tab!
1 2 3 4 5
comments
print report bad tab
guest
You may want to rate the tab now too:
select rating
Wanna post a correction for this tab? Suggest correction