Oops, an error
Loading. Please wait.

The Running Free tab

version 1
version 1

Whole song

Interactive

18,931 views 6 this week
11 commentsread comments
1 2 3 4 5
1 last vote to show rating
add to favorites
×
Save as Personal and add changes to this tab that will be seen only by you. Learn more ›
×
You can save this tab as Personal to edit and correct it or add notes. All changes will be seen only by you. Learn more »
launch autoscroll
font size
0
reset
how to read this tab
guitar tuner
edit
Autoscroll
slow
fast
+/-
esc
set tempo
stop
Author
Difficulty
Song:The Running Free
Artist:Coheed And Cambria
Good Apollo, Im Burning Star IV, Vol II: No World For Tommorow

some of you may be under the impression that this album is just called "No World For 
, but it says in the lyric book the same title i listed it as  so enjoy

Tuning: Standard (E A D G B e)
Gtr.1: Claudio Sanchez
Gtr.2: Travis Stever

Intro

Gtr.1
|---------------------------------------------------------------------------|
|---------------------------------------------------------------------------|
|-------7--------------------7----------------------------------------------|
|10-9-7-x-10-9-10-----10-9-7-x-10-9-10--------------------------------------|
|0--0-0-0--0-0--0------0-0-0-0--0-0-0---------------------------------------|
|---------------------------------------------------------------------------|
X2

Intro 2

Gtr.1
|---------------------------------------------------------------------------|
|---------------------------------------------------------------------------|
|---------------------------------------------------------------------------|
|10-9-7-12-10-9-10--x---10-9-7-10-9---0-------------------------------------|
|0--0-0--0--0-0--0--x---0--0-0--0-0---0-------------------------------------|
|-------------------x-----------------0-------------------------------------|x2

Verse

Gtr.1
|---------------------------------------------------------------------------|
|---------------------------------------------------------------------------|
|---------------------------------------------------------------------------|
|10-9-7-12-10-9-10---x-----10-9-7-10-9---0----------------------------------|
|-0-0-0--0--0--0-0---x-----0--0-0--0-0---0----------------------------------|
|--------------------x-------------------0----------------------------------|

|---------------------------------------------------------------------------|
|---------------------------------------------------------------------------|
|---------------------------------------------------------------------------|
|10-9-7-12-10-9-10---x---10-9-7-10-9---0------------------------------------|
|0--0-0--0--0-0--0---x---0--0-0-0--0---0------------------------------------|
|--------------------x-----------------0------------------------------------|

Gtr.2 prechorus (end of the verse and the prechorus)
|---------------------------------------------------------------------------|
|5~~~-8---5~~------8---5~~---8---6---5--------------------------------------|
|-------------------5----------5-------------------7------------------------|
|-----------------------------------------------------7---5---7-------------|
|----------------------------------------------------------------8/10--8--7-|
|---------------------------------------------------------------------------|

prechorus Gtr. 1
|---------------------------------------------------------------------------|
|---------------------------------------------------------------------------|
|---------------------------------------------------------------------------|
|10-------------------------------------------------------------------------|
|8--x16---------9-----------7----------3------------------------------------|
|---------------7--x16------5--x16-----1--x16-------------------------------|

Chorus Gtr.1
|---------------------------------------------------------------------------|
|---------------------------------------------------------------------------|
|---------------------------------------------------------------------------|
|5--------------------------------------------------------------------------|
|3 x16----5------------7------------3---------------------------------------|
|---------3-x16--------5-x16--------1-x16-----------------------------------|

Gtr. 2:
|----------------------------------------------------------------------------|
|----------------13-10--12---10-12----13-10--12-----10---12--1310---12-10----|
|-------------------------12—-------------------12------------------12----12-|
|5---------------------------------------------------------------------------|
|3x16----5-------------------------------------------------------------------|
|--------3x16----------------------------------------------------------------|

Gtr. 1:
|---------------------------------------------------------------------------|
|---------------------------------------------------------------------------|
|---------------------------------------------------------------------------|
|5--------------------------------------------------------------------------|
|3-x16----5------------7------------3---------------------------------------|
|---------3-x16--------5-x16--------1-x16-----------------------------------|

Gtr. 2:
|---------------------------------------------------------------------------|
|---6----5------------------13----12-------12--13--12------12-13--12--------|
|5~--------------------------14----12---14-------14---12-14----14--12-14-12-|
|--------5--0--0h2---0---2--------------------------------------------------|
|---------------------------------------------------------------------------|
|---------------------------------------------------------------------------|

Pre-Verse: Gtr. 1: x2
|---------------------------------------------------------------------------|
|---------------------------------------------------------------------------|
|---------------------------------------------------------------------------|
|---------------------------------------------------------------------------|
|7----5---7---8~~~---8---7---10-10-10-10-10--------------9-9-9-9-9----------|
|5----------------------------8--8--8---8---8----8---10--7-7-7-7-7----------|

Bridge: Gtr. 1: Muted.
|---------------------------------------------------------------------------|
|---------------------------------------------------------------------------|
|---------------------------------------------------------------------------|
|---------------------------------------------------------------------------|
|7-7-7-7-7-7----5---7---8-8-8-8-8-8-8----8---7--10-10-10-10-10--------9-----|
|5-5-5-5-5-5-------------------------------------8--8--8--8--8--8--10-7-x8--|


Gtr.2 x4

|5---3------------------------------5---3-----------------------------------|
|--5---3--5----5---3----------------5----3---5----5---3---------------------|
|-------------5--------5--4----------------------5---------5---4------------|
|---------------------------------------------------------------------------|
|---------------------------------------------------------------------------|
|---------------------------------------------------------------------------|

Outro Chorus: Part 1: Gtr. 1+2:

|---------------------------------------------------------------------------|
|---------------------------------------------------------------------------|
|---------------------------------------------------------------------------|
|5--------------------------------------------------------------------------|
|3-(ring)----5------------7------------3------------------------------------|
|------------3-(ring)-----5-x8--------1-x8-(mute last 4)--------------------|

Gtr. 1:
|---------------------------------------------------------------------------|
|---------------------------------------------------------------------------|
|---------------------------------------------------------------------------|
|5--------------------------------------------------------------------------|
|3-x16----5------------7------------3---------------------------------------|
|---------3-x16--------5-x16--------1-x16-----------------------------------|

Gtr. 2:
|---------------------------------------------------------------------------|
|---6---5-------------------13----12-------12--13--12------12-13--12--------|
|5~--------------------------14----12---14-------14---12-14----14--12-14-12-|
|--------5--0--0h2---0---2--------------------------------------------------|
|---------------------------------------------------------------------------|
|---------------------------------------------------------------------------|

Outro Chorus Part 2:

Gtr.1
|----------------------------------------------------------------------------|
|----------------------------------------------------------------------------|
|----------------------------------------------------------------------------|
|5---------------------------------------------------------------------------|
|3-x16----5------------7------------3----------------------------------------|
|---------3-x16--------5-x16--------1-x16------------------------------------|

Gtr.2
|---------------------------------------------------------------------------|
|---6----5------------------13----12-------12--13--12------12-13--12--------|
|5~--------------------------14----12---14-------14---12-14----14--12-14-12-|
|--------5--0--0h2---0---2--------------------------------------------------|
|---------------------------------------------------------------------------|
|---------------------------------------------------------------------------|

Outro: Gtr. 1: x2
|---------------------------------------------------------------------------|
|---------------------------------------------------------------------------|
|---------------------------------------------------------------------------|
|---------------------------------------------------------------------------|
|7----5---7---8~~~---8---7---10-10-10-10-10--------------9-9-9-9-9----------|
|5----------------------------8--8--8---8---8----8---1--7-7-7-7-7-----------|

|----------------------------------------------------------------------------|
|----------------------------------------------------------------------------|
|----------------------------------------------------------------------------|
|----------------------------------------------------------------------------|
|7----5---7---8~--8---7--10-10-10-10-10----------9-9-9-9-9----7-------7------|
|5-----------------------8--8--8---8---8---8--10--7-7-7-7-7---5-------5~~----|

(Intro)
(Intro 2)
(Verse)
All non-believers stand aside and fear
A new day's marching through the door
How could you ever think you'd make it here?
Did it bleed? Was it sore?
Through the struggles you've endured

(Prechorus)
You've come so far from innocence
Provided all the consequence
Only what does it matter now?

(Chorus)
Cause you're going home
You're running free
As only you would be if you never owed them anything
And now you've found your way out
In the trust you've seen your path on home

(Pre-verse)
Spend your time well before you go
Here in hell

(Verse)
Your living ends before the engineer
What was your motive in this fight?
(did they play you for the weaker of them?)
How could you ever think you'd make it here?
Was it greed that pushed your heart through the struggles you've endured?

(Prechorus)
You've come so far from innocence
Provided all the consequence
Only what does it matter now?

(Chorus)
Cause you're going home
You're running free
As only you would be if you never owed them anything
And now you've found your way out
In the trust you've seen your path on home

(Pre-Verse)
Spend your time well before you go
Here in hell

(Bridge)
(There's a hell in all of us)
Spend your time well before you go...
(There's a hell in all of...)
In a law that's all your own
(There's a hell in all of us)
There are no secrets you can hide
(There's a hell in all of...)
From yourself, in your mind, leave the worst of all behind

(Outro-Chorus)
Cause you're going home
You're running free
As only you would be if you never owed them anything
And now you've found your way out
In the trust you've seen your path on home

(Outro-Chorus 2)
Cause you're going home
You're running free
As only you would be if you never owed them anything
And now you've found your way out
In the trust you've seen your path on home

(Outro)
Spend your time well before you go
Here in hell

            
            
Suggest correction
Creating personal tab
Creating personal tab
You can edit any tab online and save it as your Personal.

You can edit, replace or remove any tab part or add personal notes – all changes will be seen only by you.

Personal tabs can be accessed anytime from any device, even offline.
Learn more »
Give kudos to tab author, rate the tab!
1 2 3 4 5
comments
print report bad tab
11 comments total. Showing first comments.
0 reply
Chaperoni 446 Oct 16, 2007 09:17 AM

not in drop d

0 reply
msr#1fan 31 Oct 18, 2007 12:09 PM

i never said to drop it to d

0 reply
msr#1fan 31 Oct 18, 2007 12:10 PM

oh wait i know what you mean now but they dont even drop d

guest
You may want to rate the tab now too:
select rating
Wanna post a correction for this tab? Suggest correction