Oops, an error
Loading. Please wait.

The Velorium Camper I Faint Of Heart Tab

25,359 views 24 this week
9 commentsread comments
1 2 3 4 5
x 17
add to favorites
launch autoscroll
font size
0
reset
how to read this tab
guitar tuner
×
Best way to learn
"The Velorium Camper I Faint Of Heart"
Autoscroll
slow
fast
+/-
esc
set tempo
stop
--------------------------------------------------------------------------
        THE CAMPER VELOURIUM I: FAINT OF HEART - Coheed and Cambria
--------------------------------------------------------------------------

Tabbed by: Joecool71
Email: mattconnellan@yahoo.com

Tuning: Standard

Well, a couple of things about this sixth song in my Coheed series: First off,
the opening solo is killer. Secondly, I cannot pick out the two separate guitar
parts of phase V, so I just melded them into one part. Other than that, enjoy!!

Intro/Verse
e|-------------------------------------------|-----------|--|
B|-------------------------------------------|-----------|--|
G|-------------------------------------7-----|-----------|--|
D|-9-7-9-5-5-5-4-0-0h4-7-------5-0-5-5---4-0-|-----------|x2|
A|-7-5-7-----------------5-5-0-3-0-3---------|-----------|--|
E|-------------------------------------------|-7-8-7-8-7-|--|
                                               . . . . .
Additional endings to verse riff
e|----------|----------|
B|----------|----------|
G|----------|----------|
D|-----99---|-----5----|
A|---77--7\-|-5-7---7\-|
E|-00-------|----------|

Intro lead
e|-12-10-8----6-------------------------------------12-15-17-15-12-15-12----12---------->
B|---------10---7-10----8----8-8-8-7----------12-15----------------------15----12------->
G|-------------------11---9----------7-9-9-7--------------------------------------14-12->
D|-------------------------------------------------------------------------------------->
A|-------------------------------------------------------------------------------------->
E|-------------------------------------------------------------------------------------->

e|-----------------------------|
B|-----------------------------|
G|-12-11----11----------12-----|
D|-------14----12-12-14----14\-|
A|-----------------------------|
E|-----------------------------|

Chorus (chords)
e|---------------|--|-------------------|
B|---------------|--|-------------------|
G|---------5---5-|--|---------9---7---5-|
D|-5---2---5---5-|X3|-7---7---9---7---5-|
A|-5---2---3---3-|--|-7---7---7---5---3-|
E|-3---0---------|--|-5---5-------------|
   .   .   .   .      .   .   .   .
Chorus lead 1
e|----------------------------------------|--|-------------|--|
B|----12--------12--------12--------12----|--|-12----------|--|
G|-------12--------12--------12--------12-|--|----12-11-12-|--|
D|-12--------12--------12--------12-------|X2|-------------|X4|
A|----------------------------------------|--|-------------|--|
E|----------------------------------------|--|-------------|--|

Chorus lead 2
e|----------------------|--|
B|----------------------|--|
G|----------------------|--|
D|-5-5h7--5-5-7/9\7-5h7-|x4|
A|----------------------|--|
E|----------------------|--|

Phase II
e|---------------------------------------------|
B|---------------------------------------------|
G|-----4h5-4-2-0-----4h5-4-0---5555555-9-9-7-7-|
D|-5-5-----------5-5---------4-5555555-9-9-7-7-|
A|-5-5-----------5-5-----------3333333-7-7-5-5-|
E|-3-3-----------3-3---------------------------|

Phase III (chords)
e|------------|
B|------------|
G|------------|
D|-7---9---10-|
A|-7---9---10-|
E|-5---7---8--|
   .   .   .
Phase III lead
e|---------------------------------|--|
B|---------------------------------|--|
G|---------------------5-7-5-4h5p4-|--|
D|-5-7-9-5-7-7-4-5-7-9-------------|x3|
A|---------------------------------|--|
E|---------------------------------|--|
   . . . . . . . . . . . . . 
Phase IV
e|--------------------------------------------|
B|--------------------------------------------|
G|--------------------------------------------|
D|-7---9-10-9-5-2-222-222-222-222-222-222-222-|
A|-7---9-10-9-5-2-222-222-222-222-222-222-222-|
E|-5---7-8--7-3-0-000-000-000-000-000-000-000-|
                . ... ... ... ... ... ... ...
Fill 1
e|---------------|--|---------|
B|---------------|--|---------|
G|---------------|--|---------|
D|---------------|X3|-3-3-3-3-|
A|---3-5-3-2-0---|--|-3-3-3-3-|
E|-0-----------3-|--|-1-1-1-1-|

Phase V
e|------------------------------------------------------------|
B|--------10--7-8-----------------------------------3-0-1---0-|
G|-0--7-9---------5--0-7-9-7-5-4---0--4-5-7--4-5-2--------2---|
D|------------------------------------------------------------|
A|------------------------------------------------------------|
E|------------------------------------------------------------|

Phase VI (chords)
e|---------------|--|
B|---------------|--|
G|-7---7---9---5-|--|
D|-7---7---9---5-|X2|
A|-5---5---7---3-|--|
E|---------------|--|

Phase VI lead
e|-0-10-8-7-5-7-5-3-0-10-8-7\---------------------------------------------|
B|--------------------------------------10-----------------------------10-|
G|----------------------------7h9-7---7----7-4-7-7p4-7/9-7---7h9-7---7----|
D|----------------------------------9----------------------9-------9------|
A|------------------------------------------------------------------------|
E|------------------------------------------------------------------------|

Fill 2
e|-----------------|
B|-10h12p10--------|
G|----------12---9-|
D|-----------------|
A|-----------------|
E|-----------------|

LYRICS AND RIFF PLACEMENT

[INTRO W/ LEAD]
[VERSE] X2
With the worries that I'd give her in they told the worst of me
My wanting just to hold your neck in my arms and feel me squeeze
No I'm not going to give you what you want so if you please
The sin that shapes your voice carries my ears this new disease
[CHORUS W/ LEAD 1]
Did somebody take your tongue?
In worries of the words that you couldn't say if they could've saved them from
But I don't want to sleep without so I bid you goodnight
Tonight sleep tight my love
[VERSE] X2
The anxious through the calming storm you'll sit as you pray for rain
I'll touch it if you ask me to but how is up to you
No I'm not going to let you get up if you struggle willingly
I'll favor all your form to show you how it's been done to me
[CHORUS W/ LEAD 1]
Did somebody take your tongue?
In worries of the words that you couldn't say if they could've saved them from
But I don't want to sleep without so I bid you goodnight
Tonight sleep tight my love
[PHASE II] X2
With all the words you say... You'll save
[PHASE III W/ LEAD] X3
You were so well behaved
As you arched and made your way
This gift for you engraved
The shift as you stretch your legs
You were so well behaved
You were so well
Who taught these tricks that make... You were so well behaved
[PHASE IV W/ LEAD] X3½ 
If the world stops turning girl you better not stop when I say
If there was nothing you could do to stop it why'd you try
Then the ground starts parting through the silence as you woke up the dead
[FILL 1]
Everything here dies alone...
[PHASE V] X2
[PHASE VI W/ LEAD] X2
But I'm not quite sure what you've been told/ this unfolds... On Labor Day
I'm not starting with you but the faint of heart
[CHORUS W/ LEAD 2] X2
Did somebody take your tongue?
In worries of the words that you couldn't say if they could've saved them from
But I don't want to sleep without so I bid you goodnight
Tonight sleep tight my love

| /  slide up
| \  slide down
| h  hammer-on
| p  pull-off
| ~  vibrato
| +  harmonic
| x  Mute note
===============================================================================
Suggest correction
comments
print report bad tab
9 comments total. Showing first comments.
0 reply
elix997 195 Aug 06, 2005 08:00 PM

very good, but the intro is

-------------
-------------
-------------
---9--9--9---
---7--0--7---
-------------

0 reply
herdrich 103 Oct 29, 2005 07:30 PM

yeah again very good, and that intro correction sounds right; also the beginning "solo" should start
-12-10-7-----7----------------------------------
----------10------10----8-----8-8--7------------
---------------12----11---9----------7--7-9-9-7-
------------------------------------------------
------------------------------------------------
------------------------------------------------
it's just stepping down the scale like co&ca loves to do.
otherwise fantastic i think!

0 reply
Underrated 190 Oct 31, 2005 08:22 PM

Yeah, my joecool account has been disabled, but I wish I could make the corrections. The first intro correction is correct. Also, in the verse riff, mine is a tad off

--------------------------------------------------------
--------------------------------------------------------
----------------------------------------4---------------
-9-9-9-4h5-5-5-4-0--0h4-7-------5-0-5-5---4-0-----------
-7-0-7--------------------5-5-0-3-0-3-------------------
----------------------------------------------7-8-7-8-7-

guest
You may want to rate the tab now too:
select rating
Wanna post a correction for this tab? Suggest correction