Oops, an error
Loading. Please wait.

The Velourium Camper I Faint Of Hearts bass

version 2
version 2

Whole song

Interactive

922 views 1 this week
2 commentsread comments
1 2 3 4 5
x 3
add to favorites
×
Save as Personal and add changes to this tab that will be seen only by you. Learn more ›
×
You can save this tab as Personal to edit and correct it or add notes. All changes will be seen only by you. Learn more »
launch autoscroll
font size
0
reset
guitar tuner
edit
Autoscroll
slow
fast
+/-
esc
set tempo
stop
Author

Gtr I (E A D G) - 'elec.'

 Drums   Intro/Mini Guitar Solo
  Moderately Fast Rock Q=138
 3/8     4/4
          Gtr I
  Q.      E E E E E E E E   +E  E E E e e e E
|------||-----------------|-------------------|
|------||---------5-5-----|-------------------|
|------||-7-0-7---------5-|-(5)-5---0-5-5-5-0-|
|------||-----------------|-------------------|


  E E E E E E E E   +E  E E E E E E E
|-----------------|---------------------|
|-----------------|---------------------|
|-3-0-3---7-7---5-|-(5)-5-5-0-3-0-3-0---|
|-----------------|---------------------|


  E E E E E E E E   +E  E E E e e e E
|-----------------|-------------------|
|---------5-5-----|-------------------|
|-7-0-7---------5-|-(5)-5---0-5-5-5-0-|
|-----------------|-------------------|


  E E E E E E E E   +E  E E  E  E  E E  e
|-----------------|-----------------------||
|-----------------|------------10----9----||
|-3-0-3---7-7---5-|-(5)-5-5-10----10---10-||
|-----------------|-----------------------||


 Verse
  E E E E E E E E   +E  E E E e e e E   E E E E E E E E   +E  E E E E E E E
|-----------------|-------------------|-----------------|-------------------|
|---------5-5-----|-------------------|-----------------|-------------------|
|-7-0-7---------5-|-(5)-5---0-5-5-5-0-|-3-0-3---7-7---5-|-(5)-5-5-0-3-0-3-0-|
|-----------------|-------------------|-----------------|-------------------|


  E E E E E E E E   +E  E E E e e e E
|-----------------|-------------------|
|---------5-5-----|-------------------|
|-7-0-7---------5-|-(5)-5---0-5-5-5-0-|
|-----------------|-------------------|


  E E E E E E E E   +E  E E  E  E  E E  e
|-----------------|-----------------------|
|-----------------|------------10----9----|
|-3-0-3---7-7---5-|-(5)-5-5-10----10---10-|
|-----------------|-----------------------|


  E E E E E E E E   +E  E Q  e e e E   E E E E E E E E   +E  E E E E E E E
|-----------------|------------------|-----------------|-------------------|
|---------5-5-----|------------------|-----------------|-------------------|
|-7-0-7---------5-|-(5)-5----5-5-5-0-|-3-0-3---7-7---5-|-(5)-5-5-0-3-0-3-0-|
|-----------------|------------------|-----------------|-------------------|


  E E E E E E E E   +E  E Q  e e e E   E E E E E E E E   +E  E E E E E E E
|-----------------|------------------|-----------------|-------------------||
|---------5-5-----|------------------|-----------------|-------------------||
|-7-0-7---------5-|-(5)-5----5-5-5-0-|-3-0-3---7-7---5-|-(5)-5-5-0-3-0-3-0-||
|-----------------|------------------|-----------------|-------------------||


   Chorus
    $
    E E E E E E E E   E E E E E E E E   E E E E E E E E   E E E E E E E E   3x
||------------------|-----------------|-----------------|-------------------||
||o-----------------|-----------------|-----------------|------------------o||
||o-----------------|-----------------|-3-3-3-3-3-3-3-3-|-3-3-3-3-3-3-3-0--o||
||--3-3-3-3-3-3-3-3-|-0-0-0-0-0-0-0-0-|-----------------|-------------------||


                                                               To Coda
  E E E E E E E E   E E E E E E E E   E E E E E E E E   E E E E E E E E
|-----------------|-----------------|-----------------|-----------------|
|-----------------|-----------------|-----------------|-----------------|
|-----------------|-----------------|-7-7-7-7-7-7-7-0-|-5-5-5-5-5-5-5-0-|
|-5-5-5-5-5-5-5-5-|-5-5-5-5-5-5-5-5-|-----------------|-----------------|


  W          +W
|----------|--------||
|----------|--------||
|----------|--------||
|-8--------|-(8)----||


 Verse
  E E E E E E E E   +E  E Q  e e e E   E E E E E E E E   +E  E E E E E E E
|-----------------|------------------|-----------------|-------------------|
|---------5-5-----|------------------|-----------------|-------------------|
|-7-0-7---------5-|-(5)-5----5-5-5-0-|-3-0-3---7-7---5-|-(5)-5-5-0-3-0-3-0-|
|-----------------|------------------|-----------------|-------------------|


  E E E E E E E E   +E  E Q  e e e E   E E E E E E E E   +E  E E  E  E  E E  e
|-----------------|------------------|-----------------|-----------------------|
|---------5-5-----|------------------|-----------------|------------10----9----|
|-7-0-7---------5-|-(5)-5----5-5-5-0-|-3-0-3---7-7---5-|-(5)-5-5-10----10---10-|
|-----------------|------------------|-----------------|-----------------------|


  E E E E E E E E   +E  E Q  e e e E   E E E E E E E E   +E  E E E E E E E
|-----------------|------------------|-----------------|-------------------|
|---------5-5-----|------------------|-----------------|-------------------|
|-7-0-7---------5-|-(5)-5----5-5-5-0-|-3-0-3---7-7---5-|-(5)-5-5-0-3-0-3-0-|
|-----------------|------------------|-----------------|-------------------|


                                                             D.S. al Coda
  E E E E E E E E   +E  E Q  E E E E   E E E E E E E E   +E  E E E E E E E
|-----------------|------------------|-----------------|-------------------||
|---------5-5-----|------------------|-----------------|-------------------||
|-7-0-7---------5-|-(5)-5----0-5-0-5-|-3-0-3---7-7---5-|-(5)-5-5-0-3-0-3-0-||
|-----------------|------------------|-----------------|-------------------||


  &
  W          +H..       E
|----------|--------------||
|----------|--------------||
|-3--------|-(3)----------||
|----------|------------3-||


 Breakdown
  E E E E E E E E   +E  E E E E E E E   +E  E E E E E E E   E E E E E E E E
|-----------------|-------------------|-------------------|-----------------|
|-----------------|-------------------|-------------------|-----------------|
|-----------------|-----------------3-|-(3)-3-3-3-3-3-0-7-|---7---5---5-----|
|-3-0-3-0-3-5-0-3-|-(3)-0-3-0-3-5-0---|-------------------|---------------3-|


  +E  E E E E E E E   +E  E E E E E E E   +E  E E E E E E E   E E E E E E E E
|-------------------|-------------------|-------------------|-----------------||
|-------------------|-------------------|-------------------|-----------------||
|-------------------|-----------------3-|-(3)-3-3-3-3-3-0-7-|---7---5---5-----||
|-(3)-0-3-0-3-5-0-3-|-(3)-0-3-0-3-5-0---|-------------------|---------------5-||


   Interlude
    E E E E E E E E   E E E E E E E E   E E E E E E E E   E E E E E E E E
||------------------|-----------------|-----------------|------------------|
||o-----------------|-----------------|-----------------|------------------|
||o-----------------|-----------------|-----------------|------------------|
||--5-5-5-5-5-5-5-5-|-5-5-5-5-5-5-5-0-|-7-7-7-7-7-7-7-7-|-7-7-7-7-7-7-7-0--|


                    1.,2.               3.
  E E E E E E E E   E E E E E E E E  3x E E E E E E E E
|-----------------|------------------||-----------------||
|-----------------|-----------------o||-----------------||
|-----------------|-----------------o||-----------------||
|-8-8-8-8-8-8-8-8-|-8-8-8-8-8-8-8-0--||-8-8-8-8-8-8-0-5-||


   Guitar Break
    Faster Q=142
    +H     +E  E E E   E E E E E E E E
||-------------------|-----------------|
||o------------------|-----------------|
||o------------3-2---|---3---2---------|
||--(5)----(5)-----3-|-----------0---1-|


  1.,2.,3.
  +E  S S E S S E S S E S S   E S S E S S E S S E E   4x
|---------------------------|-------------------------||
|---------------------------|------------------------o||
|---------------------------|------------------------o||
|-(1)-1-1-1-1-1-1-1-1-1-1-1-|-1-1-1-1-1-1-1-1-1-1-3---||


  4.
  E S S E S S E S S E E   +E  E E E E E E E
|-----------------------|-------------------|
|-----------------------|-------------------|
|-----------------------|-------5-3-2-------|
|-1-1-1-1-1-1-1-1-1-1-1-|-(1)-1-------5-3-1-|


  +E  E E E E E E E   E E E E E E E E
|-------------------|------------------||
|-------5-3-2-------|------------------||
|-------------5-3---|------------------||
|-(1)-1-----------1-|---1---1---1---3--||


 Guitar Solo
  +E  E E Q  E E E   +H.      E E   +E  E E Q  E E E   +E  E E E E E E E
|------------------|--------------|------------------|-------------------|
|------------------|--------------|------------------|-------------------|
|-----5------5---3-|-(3)----------|-----5------5---5-|-(5)-3-2-3---3-----|
|-(3)-----3----2---|----------2-3-|-(3)-----3----2---|-----------5-----3-|


  +E  E E Q  E E E   +H.      E E   +E  E E Q  E E E   +E  E E E E E E E
|------------------|--------------|------------------|-------------------||
|------------------|--------------|------------------|-------------------||
|-----5------5---3-|-(3)----------|-----5------5---5-|-(5)-3-2-3---3---5-||
|-(3)-----3--------|----------2-3-|-(3)-----3----2---|-----------5-------||


   Out-Chorus
    A Tempo Q=138
    E E E E E E E E   E E E E E E E E   E E E E E E E E   E E E E E E E E   4x
||------------------|-----------------|-----------------|-------------------||
||o-----------------|-----------------|-----------------|------------------o||
||o-5-5-5-5-5-5-5-5-|-5-5-5-5-5-5-5-0-|-7-7-7-7-7-7-7-0-|-3-3-3-3-3-3-3-0--o||
||------------------|-----------------|-----------------|-------------------||


 Outro
  W          W          E E E E E E E E   E E E E E E E E
|----------|----------|-----------------|-----------------|
|----------|----------|-----------------|-----------------|
|----------|----------|-3-3-3-3-3-3-3-3-|-3-3-3-3-3-3-3-0-|
|-3--------|-0--------|-----------------|-----------------|


    E E E E E E E E   E E E E E E E E   E E E E E E E E   E E E E E E E E
||------------------|-----------------|-----------------|-------------------||
||o-----------------|-----------------|-----------------|------------------o||
||o-----------------|-----------------|-3-3-3-3-3-3-3-3-|-3-3-3-3-3-3-3-0--o||
||--3-3-3-3-3-3-3-3-|-0-0-0-0-0-0-0-0-|-----------------|-------------------||


  E E E E E E E E   E E E E E E E E   W          E E E E E E E E
|-----------------|-----------------|----------|-----------------|
|-----------------|-----------------|----------|-----------------|
|-----------------|-----------------|-7--------|-5-5-5-5-5-5-5-5-|
|-5-5-5-5-5-5-5-5-|-5-5-5-5-5-5-5-5-|----------|-----------------|


  E E E E E E E E   E E E E E E E E
|-----------------|-----------------|
|-----------------|-----------------|
|-----------------|-----------------|
|-8-8-8-8-8-8-8-8-|-8-8-8-8-8-8-8-0-|


    E E E E E E E E   E E E E E E E E   E E E E E E E E   E E E E E E E E   3x
||------------------|-----------------|-----------------|-------------------||
||o-----------------|-----------------|-----------------|------------------o||
||o-----------------|-----------------|-3-3-3-3-3-3-3-3-|-3-3-3-3-3-3-3-0--o||
||--3-3-3-3-3-3-3-3-|-0-0-0-0-0-0-0-0-|-----------------|-------------------||


  E E E E E E E E   E E E E E E E E   E E E E E E E E   E E E E E E E E
|-----------------|-----------------|-----------------|-----------------|
|-----------------|-----------------|-----------------|-----------------|
|-----------------|-----------------|-7-7-7-7-7-7-7-7-|-5-5-5-5-5-5-5-5-|
|-5-5-5-5-5-5-5-5-|-5-5-5-5-5-5-5-5-|-----------------|-----------------|


  W          +W
|----------|--------*|
|----------|--------*|
|----------|--------*|
|-8--------|-(8)----*|


Duration Legend
---------------
W - whole; H - half; Q - quarter; E - 8th; S - 16th; T - 32nd; X - 64th; a - acciaccatura
+ - note tied to previous; . - note dotted; .. - note double dotted
Uncapitalized letters represent notes that are staccato (1/2 duration)
Irregular groupings are notated above the duration line
Duration letters will always appear directly above the note/fret number it represents the
duration for.  Duration letters with no fret number below them represent rests.  Multi-
bar rests are notated in the form Wxn, where n is the number of bars to rest for.  Low
melody durations appear below the staff

Tablature Legend
----------------
 h   - hammer-on
 p   - pull-off
 b   - bend
 pb  - pre-bend
 r   - bend release (if no number after the r, then release immediately)
 /\  - slide into or out of (from/to "nowhere")
 s   - legato slide
 S   - shift slide
  - natural harmonic
[n]  - artificial harmonic
n(n) - tapped harmonic
 ~   - vibrato
 tr  - trill
 T   - tap
 TP  - trem. picking
 PM  - palm muting
\n/  - tremolo bar dip; n = amount to dip
 \n  - tremolo bar down
 n/  - tremolo bar up
/n\  - tremolo bar inverted dip
 =   - hold bend; also acts as connecting device for hammers/pulls
 <>  - volume swell (louder/softer)
 x   - on rhythm slash represents muted slash
 o   - on rhythm slash represents single note slash

Misc Legend
-----------
 |  - bar
||  - double bar
||o - repeat start
o|| - repeat end
*|  - double bar (ending)
 :  - bar (freetime)
 $  - Segno
 &  - Coda
Tempo markers -  = BPM(8/16=s8/s16), where s8 = swing 8ths, s16 = swing 16ths



            
            
Suggest correction
Creating personal tab
Creating personal tab
You can edit any tab online and save it as your Personal.

You can edit, replace or remove any tab part or add personal notes – all changes will be seen only by you.

Personal tabs can be accessed anytime from any device, even offline.
Learn more »
Give kudos to tab author, rate the tab!
1 2 3 4 5
comments
print report bad tab
2 comments total.
0 reply
PilsburyDohBoi 31 Jul 23, 2011 09:38 PM

Playing along with this, it sounds very good. I am a little concerned with the part during the verse with the 10's and the 9, I just don't hear it like that. Also during the guitar solo I think that there should be something more there, but you seem to have it in the right place and it fits well enough. 5/5 for sure.

0 reply
beano1 31 Aug 14, 2012 02:10 PM

This is not even close, not sure what the other comment is talking about. Check out version 1, it's a lot closer, though the slap fills are missing.

guest
You may want to rate the tab now too:
select rating
Wanna post a correction for this tab? Suggest correction