Oops, an error
Loading. Please wait.

The Willing Well I Fuel For The Feeding End bass

version 1
version 1

Whole song

Interactive

3,259 views 1 this week
2 commentsread comments
1 2 3 4 5
x 3
add to favorites
×
Save as Personal and add changes to this tab that will be seen only by you. Learn more ›
×
You can save this tab as Personal to edit and correct it or add notes. All changes will be seen only by you. Learn more »
launch autoscroll
font size
0
reset
guitar tuner
edit
Autoscroll
slow
fast
+/-
esc
set tempo
stop
Author
Gtr I (Eb Ab Db Gb) - 'elec.'
Gtr II (Eb Ab Db Gb Bb Eb) - '2 keyb. arr. for 1 gtr.'

 Intro
  Moderately Fast Q=168
 2/4       4/4
  Gtr I
  E E E E   E E E E E E E E   E E E E E E E E
|---------|-----------------|-----------------|
|---------|-----------------|-----------------|
|---3-1-0-|---6-5---0-0---6-|-6---------------|
|---------|-------3---------|-----8-8---8-6-5-|


  +E   E E E E E E E   E E E E E E E E
|--------------------|-------------------|
|--------------------|-------------3-----|
|------6-5---0-0---6-|-6---3-0-3-5---5---|
|-(5)\-----3---------|-------------------|


  E E E E E E E E   E E E E E E E E   +E   E E E E E E E   E E E E E E E E
|-----------------|-----------------|--------------------|-----------------||
|-----------------|-----------------|--------------------|-----------------||
|---6-5---0-0---6-|-6---------------|------6-5---0-0---6-|-6---3-----3---5-||
|-------3---------|-----8-8---8-6-5-|-(5)\-----3---------|-------0---------||


 Verse
  E E E E E E E E   E E E E E E E E   +E   E E E E E E E   E E E E E E E E
|-----------------|-----------------|--------------------|-----------------|
|-----------------|-----------------|--------------------|-------------3---|
|---6-5---0-0---6-|-6---------------|------6-5---0-0---6-|-6---3-0-3-5---5-|
|-------3---------|-----8-8---8-6-5-|-(5)\-----3---------|-----------------|


  E E E E E E E E   E E E E E E E E   +E   E E E E E E E   E E E E E E E E
|-----------------|-----------------|--------------------|-----------------|
|-----------------|-----------------|--------------------|-----------------|
|---6-5---0-0---6-|-6---------------|------6-5---0-0---6-|-6---3-----3---5-|
|-------3---------|-----8-8---8-6-5-|-(5)\-----3---------|-------0-0-------|


  E E E E E E E E   E E E E E E E E   +E   E E E E E E E   E E E E E E E E
|-----------------|-----------------|--------------------|-----------------|
|-----------------|-----------------|--------------------|-------------3---|
|---6-5---0-0---6-|-6---------------|------6-5---0-0---6-|-6---3-0-3-5---5-|
|-------3---------|-----8-8---8-6-5-|-(5)\-----3---------|-----------------|


  E E E E E E E E   E E E E E E E E   +E   E E E E E E E   E E E E E E E E
|-----------------|-----------------|--------------------|-----------------||
|-----------------|-----------------|--------------------|-----------------||
|---6-5---0-0---6-|-6---------------|------6-5---0-0---6-|-6---3-----3---5-||
|-------3---------|-----8-8---8-6-5-|-(5)\-----3---------|-------0---------||


 Pre-Chorus
  E E E E E E E E   E E E E E E E E   E E E E E E E E   E E E E E E E E
|-----------------|-----------------|-----------------|------------------|
|---4-2-0---------|---4-2-0---------|---4-2-0---------|------------------|
|---------4-4-0---|---------4-4-0---|---------4-4-0-5-|-4-0-5-4-0-3---5--|
|---------------2-|---------------2-|-----------------|------------------|


  E E E E E E E E   E E E E E E E E   E E E E E E E E   E E E E E E E E
|-----------------|-----------------|-----------------|------------------|
|---4-2-0---------|---4-2-0---------|---4-2-0---------|------------------|
|---------4-4-0---|---------4-4-0---|---------4-4-0---|-----7---5-5-7-3--|
|---------------2-|---------------2-|---------------2-|---5--------------|


  E E E E E E E E   E E E E E E E E   E E E E E E E E   E E E E E E E E
|-----------------|-----------------|-----------------|------------------|
|---4-2-0---------|---4-2-0---------|---4-2-0---------|------------------|
|---------4-4-0---|---------4-4-0---|---------4-4-0-5-|-4-0-5-4-0-3---5--|
|---------------2-|---------------2-|-----------------|------------------|


  E E E E E E E E   E E E E E E E E   E E E E E E E E   E E E E E E E E
|-----------------|-----------------|-----------------|------------------||
|-----------------|-----------------|-----------------|------------------||
|-----------------|-----------------|-----------------|---------0-3---5--||
|---5-7-7-7-7-7-7-|-5-5-5-5-2-2-2-2-|-3-3-3-3-3-3-3-3-|-3-3-3-3----------||


 Verse
  +E   E E E E E E E   E E E E E E E E   +E   E E E E E E E   E E E E E E E E
|--------------------|-----------------|--------------------|------------------|
|--------------------|-----------------|--------------------|-------------3----|
|-(5)\-6-5---0-0---6-|-6---------------|------6-5---0-0---6-|-6---3-0-3-5---5--|
|----------3---------|-----8-8---8-6-5-|-(5)\-----3---------|------------------|


  E E E E E E E E   E E E E E E E E   +E   E E E E E E E   E E E E E E E E
|-----------------|-----------------|--------------------|-----------------|
|-----------------|-----------------|--------------------|-----------------|
|---6-5---0-0---6-|-6---------------|------6-5---0-0---6-|-6---3-----3---5-|
|-------3---------|-----8-8---8-6-5-|-(5)\-----3---------|-------0---------|


  E E E E E E E E   E E E E E E E E   +E   E E E E E E E   E E E E E E Q
|-----------------|-----------------|--------------------|----------------|
|-----------------|-----------------|--------------------|----------------|
|---6-5---0-0---6-|-6---------------|------6-5---0-0---6-|-6---3-0---3----|
|-------3---------|-----8-8---8-6-5-|-(5)\-----3---------|----------------|


  Q  E E E E E E   E E E E E E E E   +E   E E E E E E E
|----------------|-----------------|--------------------|
|----------------|-----------------|--------------------|
|----5---0-0---6-|-6---------------|------6-5---0-0---6-|
|------3---------|-----8-8---8-6-5-|-(5)\-----3---------|


                     7/8                 2/4
  E E E E E S S E E   E S S E E E S S E   S S E E E
|-------------------|-------------------|-----------||
|---------------3---|-------3---------3-|-----------||
|-6---3-0-3-5-5---5-|-3-5-5---5-3-5-5---|-5---3---5-||
|-------------------|-------------------|-----------||


 Pre-Chorus
 4/4
  E E E E E E E E   E E E E E E E E   E E E E E E E E   E E E E E E E E
|-----------------|-----------------|-----------------|-----------------|
|---4-2-0---------|---4-2-0---------|---4-2-0---------|-----------------|
|---------4-4-0---|---------4-4-0---|---------4-4-0-5-|-4-0-5-4-0-3---5-|
|---------------2-|---------------2-|-----------------|-----------------|


  E E E E E E E E   E E E E E E E E   E E E E E E E E   E E E E E E E E
|-----------------|-----------------|-----------------|------------------|
|---4-2-0---------|---4-2-0---------|---4-2-0---------|------------------|
|---------4-4-0---|---------4-4-0---|---------4-4-0---|-----7---5-5-7-3--|
|---------------2-|---------------2-|---------------2-|---5--------------|


  E E E E E E E E   E E E E E E E E   E E E E E E E E   E E E E E E E E
|-----------------|-----------------|-----------------|------------------|
|---4-2-0---------|---4-2-0---------|---4-2-0---------|------------------|
|---------4-4-0---|---------4-4-0---|---------4-4-0-5-|-4-0-5-4-0-3---5--|
|---------------2-|---------------2-|-----------------|------------------|


  E E E E E E E E   E E E E E E E E   E E E E E E E E
|-----------------|-----------------|-----------------|
|-----------------|-----------------|-----------------|
|-----------------|-----------------|-----------------|
|---5-7-7-7-7-7-7-|-5-5-5-5-2-2-2-2-|-3-3-3-3-3-3-3-3-|


  E E E E E E E E   E E E E E E E E   E E E E E E E E
|-----------------|-----------------|-----------------||
|-----------------|---------------5-|-4-0-5-4-0-5-4-0-||
|-----------------|---5-4-0-5-4-0---|-----------------||
|-3-3-3-3-3-3-3-3-|-----------------|-----------------||


   Chorus
    Slower Q=158
                                                          |-3-|
    E E Q  S E E E.   E E Q  S E E E.   E E Q  S E E E.   E E E E E E E Q    3x
||------------------|-----------------|-----------------|--------------------||
||o-----------------|-----------------|-----------------|---------5-4-------o||
||o-----------------|-----------------|-----------------|-------5-----5-7---o||
||--2-2------2-2----|-2-2------2-2----|-0-0------0-0----|-0-0-0--------------||


  E E Q  S E E E.   E E Q  S E E E.   E E E E E E E E
|-----------------|-----------------|-----------------|
|-----------------|-----------------|-----------------|
|-----------------|-4---------------|-----------------|
|-2-2------2-2----|---2------2-2----|-0-0-0-0-0-0-0-0-|


  E E E E E E E E   E E E E H
|-----------------|--------------||
|-----------------|--------------||
|-----------------|--------------||
|-3-3-3-3-3-3-3-3-|-3-3-3-3------||


 Interlude
  Faster Q=160
  E E E E E E E E   E E E E E E E E   E E E E E E E E   E E E E E E E E
|-----------------|-----------------|-----------------|------------------|
|-----7-----7-----|-7---------------|-----------------|------------------|
|-5-5---5-5---5-5-|---5-5-5-7-7-7-9-|-----9-----9-----|-9-------7--------|
|-----------------|-----------------|-7-7---7-7---7-7-|---7-7-7---7-5-7--|


  E E E E E E E E   E E E E E E E E   E E E E E E E E   E E E E E E E E
|-----------------|-----------------|-----------------|------------------||
|-----------------|-----------------|-----------------|------------------||
|-----7-----7-----|-7-------7-5-4-0-|-----5-----5-----|------------------||
|-5-5---5-5---5-5-|---5-5-5---------|-3-3---3-3---3-3-|-3-3-5-5-7-7-9-9--||


 Bridge
  E E E E E E E E   E E E E E E E E   E E E E E E E E   E E E E E E E E
|-----------------|-----------------|-----------------|------------------|
|-----------------|-----------------|-----------------|------------------|
|-5-5-0-2-5-5-0-2-|-5-5-0-0-5-7-7-9-|-----9-----------|-----9-------5-7--|
|-----------------|-----------------|-7-7---7-7-7-7-7-|-7-7---7-5-7------|


  E E E E E E E E   E E E E E E E E   E E E E E E E E   E E E E E E E E
|-----------------|-----------------|-----------------|------------------|
|-----------------|-----------------|-----------------|------------------|
|-----7-------7---|-----------------|-----5-------5---|-----5---------4--|
|-5-5---5-5-5---5-|-5-5-5-5-5-5-5-5-|-3-3---3-3-5---5-|-3-3---3-3-5-5----|


  E E E E E E E E   E E E E E E E E   E E E E E E E E   E E E E E E E E
|-----------------|-----------------|-----------------|------------------|
|-----------------|-----------------|-----------------|------------------|
|-5-5-0-2-5-5-0-2-|-5-5-0-0-5-7-7-9-|-----9-----------|-----9-------5-7--|
|-----------------|-----------------|-7-7---7-7-7-7-7-|-7-7---7-5-7------|


  E E E E E E E E   E E E E E E E E   E E E E E E E E   E E E E E E E E
|-----------------|-----------------|-----------------|------------------|
|-----------------|-----------------|-----------------|------------------|
|-----7-------7---|-----7-------2-4-|-----5-----5-----|------------------|
|-5-5---5-5-5---5-|-5-5---5-3-5-----|-3-3---3-3---3-3-|-3-3-5-5-7-7-9-9--|


   E  E E H     E    E  E H.         E  E H.         E  E E  E  E  E E  E
|-----------------|---------------|---------------|------------------------|
|-----------------|---------------|---------------|------------------------|
|-----------------|---------------|---------------|-13-----------------10--|
|-11-11--------11-|-11-11---------|-11-11---------|----11---11-11-13-------|


   E  E Q   H       E E H.        E E H.        E E E E E E E E
|-----------------|-------------|-------------|------------------|
|-----------------|-------------|-------------|------------------|
|-10-10----10\----|-------------|-------------|-------------5----|
|-----------------|-3-3---------|-3-3---------|-3-3---3-3-5---5--|


   E  E Q   Q.    E    E  E H.         E  E H.         E  E E  E  E  E E  E
|-------------------|---------------|---------------|------------------------|
|-------------------|---------------|---------------|------------------------|
|----------13\------|---------------|---------------|-13-----------------10--|
|-11-11----------11-|-11-11---------|-11-11---------|----11---11-11-13-------|


   E  E Q   H       E E H.        E E H.        E E E E E E E E
|-----------------|-------------|-------------|------------------||
|-----------------|-------------|-------------|------------------||
|-10-10----10\----|-------------|-------------|-------------5----||
|-----------------|-3-3---------|-3-3---------|-3-3---3-3-5---5--||


 Interlude
  W          +W           +W           +H      Q.   E
|----------|------------|------------|-----------------|
|----------|------------|------------|-----------------|
|----------|------------|------------|--------13\------|
|-6--------|-(6)--------|-(6)--------|-(6)-------------|


   E  E E  E  E  E E  E    E  E E  E  E E  Q
|-----------------------|---------------------|
|-----------------------|------------12-------|
|-----------------------|-12-12---12------12--|
|-10-10---10-10-10---10-|---------------------|
|
|  W                       W
|-----------------------|---------------------|
|-----------------------|---------------------|
|-----------------------|---------------------|
|-----------------------|---------------------|
|-----------------------|---------------------|
|-----------------------|---------------------|


   E  E E  E  E  E  E  E    E  E  E  E  E  E  Q
|------------------------|-------------------------|
|------------------------|-------------------------|
|------------------------|-------12----------------|
|-10-10---10-10-10----10-|-10-10----10-10-10-12----|
|
|            Gtr II
|  H          E  E  E  E    E  E  E  E  E  E  Q
|------------------17----|----17-------17----------|
|------------------------|-18----17-18----17-17\---|
|------------17-19----19-|-------------------------|
|------------------------|-------------------------|
|------------------------|-------------------------|
|------------------------|-------------------------|


  E E E E E E E E   E E E  E E E Q
|-----------------|-----------------|
|-----------------|-----------------|
|-----------------|-----------------|
|-6-6---6-6-6---6-|-6-6-8-10-8---6--|
|
| W                 W
|-----------------|-----------------|
|-----------------|-----------------|
|-----------------|-----------------|
|-----------------|-----------------|
|-----------------|-----------------|
|-----------------|-----------------|


  E E E E E E E E    E  E  E  E  E  E  E E
|-----------------|-------------------------|
|-----------------|-------------------------|
|-----------------|-------------------------|
|-6-6---6-6-6---6-|--6--6--8-10--8--0--6-8--|
|
|                                      ~~
| W                  E  E  E  E  E  E  Q
|-----------------|-------------------------|
|-----------------|-15----------15----------|
|-----------------|----17p14-------17p14----|
|-----------------|----------17-------------|
|-----------------|-------------------------|
|-----------------|-------------------------|


    E   E E   E  E  E E  E    E  E E  E  E E  Q
|--------------------------|---------------------|
|--------------------------|------------12-------|
|--------------------------|-12-12---12------12--|
|--10--10----10-10-10---10-|---------------------|
|
|  +Q     H.                  W
|--------------------------|---------------------|
|--------------------------|---------------------|
|-(14)---------------------|---------------------|
|--------------------------|---------------------|
|--------------------------|---------------------|
|--------------------------|---------------------|


   E  E E  E  E  E  E  E    E  E  E  E  E  Q.
|------------------------|-------------------------||
|------------------------|-------------------------||
|------------------------|----12-12----12----------||
|-10-10---10-10-10----10-|-10-------10----10\------||
|
|  H          E  E  E  E    E  E  E  E  E  E   Q
|------------------17----|----17-------17----------||
|------------------------|-18----17-18----18--17---||
|------------17-19----19-|-------------------------||
|------------------------|-------------------------||
|------------------------|-------------------------||
|------------------------|-------------------------||


   Bridge
    E E E E Q  E E   E E E E E E E E    H.      E  E   E  Q   E  Q   Q
||-----------------|-----------------|---------------|-------------------||
||o----------------|-----------------|---------------|------------------o||
||o----------------|-----------------|---------------|------------------o||
||--5-5---5-5--5---|-5-5---5-5-5-7-9-|-10---------10-|---10--10-12--12---||


  E E E E Q  E E   E E E E E E E E    H.      E  E   E  Q   E  E  E  E E
|----------------|-----------------|---------------|----------------------|
|----------------|-----------------|---------------|----------------------|
|----------------|-----------------|---------------|----------------------|
|-5-5---5-5--5---|-5-5---5-5-5-7-9-|-10---------10-|---10--10-12-12-10-9--|


  E E E E Q  E E   E E E E E E E E    H.      E  E   E  Q   E  E  E  E  E
|----------------|-----------------|---------------|-----------------------||
|----------------|-----------------|---------------|-----------------------||
|----------------|-----------------|---------------|-----------------------||
|-5-5---5-5--5---|-5-5---5-5-5-7-9-|-10---------10-|---10--10-12-12-10-12--||


 Guitar Solo
  Faster! Q=164
 3/4
   E  E E E E E   E E E E E E   E E E E E E    Q   Q   E E
|---------------|-------------|-------------|--------------|
|---------------|-------------|-------------|--------------|
|-10-10---------|-------------|-------------|-12--12--12p0-|
|---------3-3-0-|-3-3---3-3-0-|-3-3---3-3-0-|--------------|


  E E E E E E   E E E E E E   E E E E E E   Q  Q  Q
|-------------|-------------|-------------|----------|
|-------------|-------------|-------------|----------|
|-------------|-------------|-0-0---0-0-2-|-5--5--5--|
|-3-3---3-3-0-|-3-3---3-3-0-|-------------|----------|


    E E E E E E   E E E E E E   E E E E E E    Q   Q   E E
||--------------|-------------|-------------|--------------|
||o-------------|-------------|-------------|--------------|
||o-------------|-------------|-------------|-12--12--12p0-|
||--3-3---3-3---|-3-3---3-3---|-3-3---3-3-0-|--------------|


  E E E E E E   E E E E E E   E E E E E E   Q  Q  E E
|-------------|-------------|-------------|------------||
|-------------|-------------|-------------|-----------o||
|-------------|-------------|-0-0-0-0-0-2-|-5--5--5p0-o||
|-3-3---3-3---|-3-3---3-3---|-------------|------------||


  E E E E E E   E E E E E E   E E E E E E    Q   Q   E E
|-------------|-------------|-------------|--------------|
|-------------|-------------|-------------|--------------|
|-------------|-------------|-------------|-12--12--12p0-|
|-3-3---3-3---|-3-3---3-3---|-3-3---3-3-0-|--------------|


  E E E E E E   E E E E E E   E E E E E E   Q  Q  E E
|-------------|-------------|-------------|-----------||
|-------------|-------------|-------------|-----------||
|-------------|-------------|-0-0---0-0-2-|-5--5--5p0-||
|-3-3---3-3---|-3-3---3-3-0-|-------------|-----------||


 Outro
   E  E E E E E    E  E E E E E   E E E E E E   E E E E E E
|---------------|---------------|-------------|-------------|
|---------------|---------------|-------------|-------------|
|---------------|---------------|-7-7---0-0---|-7-7---0-0-2-|
|-10-10---5-5---|-10-10---0h7h9-|-------------|-------------|
|
|       Gtr II
|  Q    q   q      w              q   q   q     q   q   Q
|---------------|---------------|-------------|-------------|
|-------7-------|---------------|-----9-------|-----2-------|
|-------7-------|---------------|-----9-------|-----2-------|
|---------------|---------------|-------------|-------------|
|---------------|---------------|-------------|-------------|
|---------------|---------------|-------------|-------------|


  E E E E E E   E E E E E E   E E E E E E   E E E E E E
|-------------|-------------|-------------|-------------|
|-------------|-------------|-------------|-------------|
|-5-5---5-5---|-5-5---------|-7-7---0-7---|-7-7---0-0-2-|
|-------------|-------0h7h9-|-------------|-------------|
|
| Q   q   q     w             q   q   q     q   q   Q
|-------------|-------------|-------------|-------------|
|-----7-------|-------------|-----9-------|-----2-------|
|-----7-------|-------------|-----9-------|-----2-------|
|-------------|-------------|-------------|-------------|
|-------------|-------------|-------------|-------------|
|-------------|-------------|-------------|-------------|


  E E E E E E   E E E E E E   E E E E E E   E E E E Q
|-------------|-------------|-------------|------------|
|-------------|-------------|-------------|------------|
|-5-5-----5---|-5-5---------|-7-7---0-7---|-7-7---0-0--|
|-------0-----|-------0h7h9-|-------------|------------|
|
| Q   q   q     w             q   q   q     q   q   Q
|-------------|-------------|-------------|------------|
|-----7-------|-------------|-----9-------|-----2------|
|-----7-------|-------------|-----9-------|-----2------|
|-------------|-------------|-------------|------------|
|-------------|-------------|-------------|------------|
|-------------|-------------|-------------|------------|


   E  E E  E  E E    E  E E E E E   E E E E E E   E E E E E E
|-----------------|---------------|-------------|-------------|
|-----------------|---------------|-------------|-------------|
|-----------------|---------------|-7-7---0-7---|-7-7-7-7-7-0-|
|-10-10---10-10---|-10-10---0h7h9-|-------------|-------------|
|
|  Q    q     q      w              q   q   q     q   q   Q
|-----------------|---------------|-------------|-------------|
|-------7---------|---------------|-----9-------|-----2-------|
|-------7---------|---------------|-----9-------|-----2-------|
|-----------------|---------------|-------------|-------------|
|-----------------|---------------|-------------|-------------|
|-----------------|---------------|-------------|-------------|


   E   E E  E  E  E    E   E E  E  E  E    E   E E  E  E E    Q    Q   Q
|-------------------|-------------------|------------------|--------------|
|-------------------|-------------------|------------------|--------------|
|-------------------|-------------------|------------------|--------------|
|-10--10---10-10-10-|-10--10---10-10-10-|-10--10---10-10-0-|-12---12--12--|
|
|  ~~~~~~~~~~~~~~~~~~~~~~~~~~~~~~~~~~~~~~~~~~~~~~~~~~~~~~~~~~~~~~
|  H.                 +H.                 +H.                +H.
|-------------------|-------------------|------------------|--------------|
|-------------------|-------------------|------------------|--------------|
|-------------------|-------------------|------------------|--------------|
|-------------------|-------------------|------------------|--------------|
|--0----------------|-(0)---------------|-(0)--------------|-(0)----------|
|-------------------|-------------------|------------------|--------------|


   E  E E E E E     E  E E E E E     E  E E E E E     Q   Q  Q
|---------------|----------------|----------------|-------------|
|---------------|----------------|----------------|-------------|
|---------------|----------------|----------------|-------------|
|--5--5---5-5-5-|---5--5---5-5-5-|---5--5---5-5-5-|---5---7--9--|
|
|  ~~~~~~~~~~~~~~~~~~~~~~~~~~~~~~~~~~~~~~~~~~~~~~~~~~~~~~
|  H.              +H.              +H.              +H.
|---------------|----------------|----------------|-------------|
|---------------|----------------|----------------|-------------|
|-14------------|-(14)-----------|-(14)-----------|-(14)--------|
|--7------------|--(7)-----------|--(7)-----------|--(7)--------|
|-(0)-----------|--(0)-----------|--(0)-----------|--(0)--------|
|---------------|----------------|----------------|-------------|


   E   E E  E  E  E    E   E E  E  E  E    E   E E  E  E E    Q    Q  E  E
|-------------------|-------------------|------------------|---------------|
|-------------------|-------------------|------------------|---------------|
|-------------------|-------------------|------------------|---------------|
|-10--10---10-10-10-|-10--10---10-10-10-|-10--10---10-10-0-|-12---12----12-|
|
|  ~~~~~~~~~~~~~~~~~~~~~~~~~~~~~~~~~~~~~~~~~~~~~~~~~~~~~~~~~~~~~~
| +H.                 +H.                 +H.                +H.
|-------------------|-------------------|------------------|---------------|
|-------------------|-------------------|------------------|---------------|
|-------------------|-------------------|------------------|---------------|
|-(7)---------------|-(7)---------------|-(7)--------------|-(7)-----------|
|-(0)---------------|-(0)---------------|-(0)--------------|-(0)-----------|
|-------------------|-------------------|------------------|---------------|


   E  E E E E E     E  E E E E E     E  E E E E E     Q   Q  Q
|---------------|----------------|----------------|-------------|
|---------------|----------------|----------------|-------------|
|---------------|----------------|----------------|-------------|
|--5--5---5-5-5-|---5--5---5-5-5-|---5--5---5-5-5-|---5---5--2--|
|
|  ~~~~~~~~~~~~~~~~~~~~~~~~~~~~~~~~~~~~~~~~~~~~~~~~~~~~~~
|  H.              +H.              +H.              +H.
|---------------|----------------|----------------|-------------|
|---------------|----------------|----------------|-------------|
|-14------------|-(14)-----------|-(14)-----------|-(14)--------|
|-(7)-----------|--(7)-----------|--(7)-----------|--(7)--------|
|-(0)-----------|--(0)-----------|--(0)-----------|--(0)--------|
|---------------|----------------|----------------|-------------|


   E  E E E E E     E  E E E E E     E  E E E E E     E  E E E E E
|---------------|----------------|----------------|----------------|
|---------------|----------------|----------------|----------------|
|---------------|----------------|----------------|----------------|
|--3--3---3-3-3-|---3--3---3-3-3-|---3--3---3-3-3-|---3--3---3-3-5-|
|
|  ~~~~~~~~~~~~~~~~~~~~~~~~~~~~~~~~~~~~~~~~~~~~~~~~~~~~~~
|  H.              +H.              +H.              +H.
|---------------|----------------|----------------|----------------|
|---------------|----------------|----------------|----------------|
|-12------------|-(12)-----------|-(12)-----------|-(12)-----------|
|--5------------|--(5)-----------|--(5)-----------|--(5)-----------|
|-(0)-----------|--(0)-----------|--(0)-----------|--(0)-----------|
|---------------|----------------|----------------|----------------|


   E  E E E E E     E  E E E E E     E  E E E E E     E  E E E E E
|---------------|----------------|----------------|----------------|
|---------------|----------------|----------------|----------------|
|--5--5---5-5-5-|---5--5---5-5-5-|---5--5---5-5-5-|---5--5-5-5-5-0-|
|---------------|----------------|----------------|----------------|
|
|  ~~~~~~~~~~~~~~~~~~~~~~~~~~~~~~~~~~~~~~~~~~~~~~~~~~~~~~
|  H.              +H.              +H.              +H.
|---------------|----------------|----------------|----------------|
|---------------|----------------|----------------|----------------|
|-14------------|-(14)-----------|-(14)-----------|-(14)-----------|
|--7------------|--(7)-----------|--(7)-----------|--(7)-----------|
|-(0)-----------|--(0)-----------|--(0)-----------|--(0)-----------|
|---------------|----------------|----------------|----------------|


  E E E E E E   E E E E E E   E E E E E E   E E E E E E
|-------------|-------------|-------------|-------------|
|-------------|-------------|-------------|-------------|
|-5-5---5-5---|-5-5---------|-7-7---7-7---|-7-7---------|
|-------------|-------0h7h9-|-------------|-------0h7h9-|
|
| Q   q   q     w             q   q   q     q   q   Q
|-------------|-------------|-------------|-------------|
|-----7-------|-------------|-----9-------|-----2-------|
|-----7-------|-------------|-----9-------|-----2-------|
|-------------|-------------|-------------|-------------|
|-------------|-------------|-------------|-------------|
|-------------|-------------|-------------|-------------|


  E E E E E E   E E E E E E   E E E E E E   E E E E E E
|-------------|-------------|-------------|-------------|
|-------------|-------------|-------------|-------------|
|-5-5---5-5---|-5-5---------|-7-7---7-7---|-7-7-7-7-7-0-|
|-------------|-------0h7h9-|-------------|-------------|
|
| Q   q   Q     W             Q   q   q     Q   q   q
|-------------|-------------|-------------|-------------|
|-----7-------|-------------|-----9-------|-----7---5---|
|-----7-------|-------------|-----9-------|-----7---6---|
|-------------|-------------|-------------|-------------|
|-------------|-------------|-------------|-------------|
|-------------|-------------|-------------|-------------|


  E E E E E E   E E E E E E   E E E E E E   E E E E E E
|-------------|-------------|-------------|-------------|
|-------------|-------------|-------------|-------------|
|-5-5---5-5---|-5-5---------|-7-7---0-7---|-7-7---------|
|-------------|-------0h7h9-|-------------|-------0h7h9-|
|
| E E q   Q     Q   q   Q     Q   Q   Q     Q   Q   Q
|-0-0-0-------|-------------|-------------|-----7-------|
|-2-2-2-------|-----2-------|-----5-------|-----7-------|
|-2-2-2-------|-----2-------|-----6-------|-------------|
|-------------|-------------|-------------|-------------|
|-------------|-------------|-------------|-------------|
|-------------|-------------|-------------|-------------|


  E E  E E E E   E E E E E E   E E E E E E   E E E E E E
|--------------|-------------|-------------|-------------|
|--------------|-------------|-------------|-------------|
|-5-5----5-5---|-5-5---------|-7-7---0-7---|-7-7---7-7-0-|
|--------------|-------0h7h9-|-------------|-------------|
|
| Q    q   Q     Q   q   Q     Q   Q   Q     Q   Q   Q
|--------------|-------------|-------------|-----7-------|
|--------------|-----7-------|-----5-------|-----7-------|
|------7-------|-----7-------|-----6-------|-------------|
|-----11-------|-------------|-------------|-------------|
|--------------|-------------|-------------|-------------|
|--------------|-------------|-------------|-------------|


   H.         +Q.   E E E    H.         +Q.   E E E
|----------|--------------|----------|--------------|
|----------|--------------|----------|--------------|
|--5-------|--(5)---------|--7-------|--(7)---------|
|----------|--------0h7h9-|----------|--------0h7h9-|
|
|  ~~~~~~~~~~~~~~~~~~~~~~~~~~~~~~~~~~~~~~~~~
|  H.         +H.            H.         +H.
|----------|--------------|----------|--------------|
|----------|--------------|----------|--------------|
|-14-------|-(14)---------|-16-------|-(16)---------|
|--7-------|--(7)---------|-(7)------|--(7)---------|
|--0-------|--(0)---------|-(0)------|--(0)---------|
|----------|--------------|----------|--------------|


  H.        +Q.   E E E    H.        +H     E E
|---------|-------------|----------|------------|
|---------|-------------|----------|------------|
|-5-------|-(5)---------|--7-------|-(7)----9-7-|
|---------|-------0h7h9-|----------|------------|
|
| ~~~~~~~~~~~~~~~~~~~~~~~~~~~~~~~~~~~~~~~
| H.        +H.            H.        +H.
|---------|-------------|----------|------------|
|---------|-------------|----------|------------|
|---------|-------------|----------|------------|
|-7-------|-(7)---------|--9-------|-(9)--------|
|-0-------|-(0)---------|-(0)------|-(0)--------|
|---------|-------------|----------|------------|


  E E E E E E   E E E E E E   E E E E E E   E E E E E E
|-------------|-------------|-------------|-------------|
|-------------|-------------|-------------|-------------|
|-5-5---5-5---|-5-5---------|-7-7---0-7---|-7-7---------|
|-------------|-------0h7h9-|-------------|-------0h7h9-|
|
| Q   q   Q     Q   q   Q     Q   Q   Q     Q   Q   Q
|-----0-------|-------------|-------------|-----7-------|
|-----2-------|-----2-------|-----5-------|-----7-------|
|-----2-------|-----2-------|-----6-------|-------------|
|-------------|-------------|-------------|-------------|
|-------------|-------------|-------------|-------------|
|-------------|-------------|-------------|-------------|


  E E  E E E E   E E E E E E   E E E E E E   Q  Q  Q
|--------------|-------------|-------------|----------|
|--------------|-------------|-------------|----------|
|-5-5------5---|-5-5---------|-7-7---0-7---|-7--7--7--|
|--------0-----|-------0h7h9-|-------------|----------|
|
| Q    q   Q     Q   q   Q     Q   Q   Q     Q  Q  Q
|--------------|-------------|-------------|----7-----|
|--------------|-----7-------|-----5-------|----7-----|
|------7-------|-----7-------|-----6-------|----------|
|-----11-------|-------------|-------------|----------|
|--------------|-------------|-------------|----------|
|--------------|-------------|-------------|----------|


   E   E E  E  E  E    E   E E  E  E  E    E   E E  E  E E    Q    E Q   E
|-------------------|-------------------|------------------|---------------|
|-------------------|-------------------|------------------|---------------|
|-------------------|-------------------|------------------|---------------|
|-10--10---10-10-10-|-10--10---10-10-10-|-10--10---10-10-0-|-12---12----12-|
|
|  ~~~~~~~~~~~~~~~~~~~~~~~~~~~~~~~~~~~~~~~~~~~~~~~~~~~~~~~~~~~~~~
|  H.                 +H.                 +H.                +H.
|-------------------|-------------------|------------------|---------------|
|-------------------|-------------------|------------------|---------------|
|-------------------|-------------------|------------------|---------------|
|-------------------|-------------------|------------------|---------------|
|--0----------------|-(0)---------------|-(0)--------------|-(0)-----------|
|-------------------|-------------------|------------------|---------------|


   E  E E E E E     E  E E E E E     E  E E E E E     Q   Q  Q
|---------------|----------------|----------------|-------------|
|---------------|----------------|----------------|-------------|
|---------------|----------------|----------------|-------------|
|--5--5---5-5-5-|---5--5---5-5-5-|---5--5---5-5-5-|---5---7--9--|
|
|  ~~~~~~~~~~~~~~~~~~~~~~~~~~~~~~~~~~~~~~~~~~~~~~~~~~~~~~
|  H.              +H.              +H.              +H.
|---------------|----------------|----------------|-------------|
|---------------|----------------|----------------|-------------|
|-14------------|-(14)-----------|-(14)-----------|-(14)--------|
|--7------------|--(7)-----------|--(7)-----------|--(7)--------|
|-(0)-----------|--(0)-----------|--(0)-----------|--(0)--------|
|---------------|----------------|----------------|-------------|


   E   E E  E  E  E    E   E E  E  E  E    E   E E  E  E E    E   E Q.    E
|-------------------|-------------------|------------------|----------------|
|-------------------|-------------------|------------------|----------------|
|-------------------|-------------------|------------------|----------------|
|-10--10---10-10-10-|-10--10---10-10-10-|-10--10---10-10-0-|-12--12------12-|
|
|  ~~~~~~~~~~~~~~~~~~~~~~~~~~~~~~~~~~~~~~~~~~~~~~~~~~~~~~~~~~~~~~
| +H.                 +H.                 +H.                +H.
|-------------------|-------------------|------------------|----------------|
|-------------------|-------------------|------------------|----------------|
|-------------------|-------------------|------------------|----------------|
|-(7)---------------|-(7)---------------|-(7)--------------|-(7)------------|
|-(0)---------------|-(0)---------------|-(0)--------------|-(0)------------|
|-------------------|-------------------|------------------|----------------|


   E  E E E E E     E  E E E E E     E  E E E E E     Q   Q  Q
|---------------|----------------|----------------|-------------|
|---------------|----------------|----------------|-------------|
|---------------|----------------|----------------|-------------|
|--5--5---5-5-5-|---5--5---5-5-5-|---5--5---5-5-5-|---7---5--2--|
|
|  ~~~~~~~~~~~~~~~~~~~~~~~~~~~~~~~~~~~~~~~~~~~~~~~~~~~~~~
|  H.              +H.              +H.              +H.
|---------------|----------------|----------------|-------------|
|---------------|----------------|----------------|-------------|
|-14------------|-(14)-----------|-(14)-----------|-(14)--------|
|-(7)-----------|--(7)-----------|--(7)-----------|--(7)--------|
|-(0)-----------|--(0)-----------|--(0)-----------|--(0)--------|
|---------------|----------------|----------------|-------------|


   E  E E E E E     E  E E E E E     E  E E E E E     E  E E E E E
|---------------|----------------|----------------|----------------|
|---------------|----------------|----------------|----------------|
|---------------|----------------|----------------|----------------|
|--3--3---3-3-3-|---3--3---3-3-3-|---3--3---3-3-3-|---3--3---3-3-5-|
|
|  ~~~~~~~~~~~~~~~~~~~~~~~~~~~~~~~~~~~~~~~~~~~~~~~~~~~~~~
|  H.              +H.              +H.              +H.
|---------------|----------------|----------------|----------------|
|---------------|----------------|----------------|----------------|
|-12------------|-(12)-----------|-(12)-----------|-(12)-----------|
|--5------------|--(5)-----------|--(5)-----------|--(5)-----------|
|-(0)-----------|--(0)-----------|--(0)-----------|--(0)-----------|
|---------------|----------------|----------------|----------------|


   E  E E E E E     E  E E E E E     E  E E E E E     E  E E E E E
|---------------|----------------|----------------|----------------|
|---------------|----------------|----------------|----------------|
|--5--5---5-5-5-|---5--5---5-5-5-|---5--5---5-5-5-|---5--5-5-5-5-0-|
|---------------|----------------|----------------|----------------|
|
|  ~~~~~~~~~~~~~~~~~~~~~~~~~~~~~~~~~~~~~~~~~~~~~~~~~~~~~~
|  H.              +H.              +H.              +H.
|---------------|----------------|----------------|----------------|
|---------------|----------------|----------------|----------------|
|-14------------|-(14)-----------|-(14)-----------|-(14)-----------|
|--7------------|--(7)-----------|--(7)-----------|--(7)-----------|
|-(0)-----------|--(0)-----------|--(0)-----------|--(0)-----------|
|---------------|----------------|----------------|----------------|


    Slower Q=140
     H.             H.             H.         +H.     3x
||---------------|--------------|----------|----------||
||o--------------|--------------|----------|---------o||
||o--------------|--------------|----------|---------o||
||---2-----------|--0-----------|--3-------|--(3)-----||
|
|    ~~~~~~~~~~~~~~~~~~~~~~~~~~~~~~~~~~~~~~~~~~~~~
|    Q    Q   Q     Q    Q   Q     H.         +H.     3x
||---------------|--------------|----------|----------||
||o--------------|-12-----------|----------|---------o||
||--11---13--14--|------14--13--|-12-------|-(12)-----||
||---7-----------|-(7)----------|-(7)------|--(7)-----||
||o--0-----------|-(0)----------|-(0)------|--(0)----o||
||---------------|--------------|----------|----------||
     H.            +H.            +H.         +H.


  H.=H                          Free Time Q=100
   H.             H.             H.         +H.        +H.        +H.
|--------------|--------------|----------|-----------|----------|--------*|
|--------------|--------------|----------|-----------|----------|--------*|
|--------------|--------------|----------|-----------|----------|--------*|
|--2-----------|--0-----------|--3-------|--(3)------|-(3)------|-(3)----*|
|
|  ~~~~~~~~~~~~~~~~~~~~~~~~~~~~~~~~~~~~~~~~~~~~~~~~~~~~~~~~~~~~~~~~~~~
|  Q    Q   Q     Q    Q   Q     H.         +H.        +H.        +H.
|--------------|--------------|----------|-----------|----------|--------*|
|--------------|-12-----------|----------|-----------|----------|--------*|
|-11---13--14--|------14--13--|-12-------|-(12)------|----------|--------*|
|-(7)----------|-(7)----------|-(7)------|--(7)------|-(7)------|-(7)----*|
|-(0)----------|-(0)----------|-(0)------|--(0)------|-(0)------|-(0)----*|
|--------------|--------------|----------|-----------|----------|--------*|
  +H.            +H.            +H.         +H.


Duration Legend
---------------
W - whole; H - half; Q - quarter; E - 8th; S - 16th; T - 32nd; X - 64th; a - acciaccatura
+ - note tied to previous; . - note dotted; .. - note double dotted
Uncapitalized letters represent notes that are staccato (1/2 duration)
Irregular groupings are notated above the duration line
Duration letters will always appear directly above the note/fret number it represents the
duration for.  Duration letters with no fret number below them represent rests.  Multi-
bar rests are notated in the form Wxn, where n is the number of bars to rest for.  Low
melody durations appear below the staff

Tablature Legend
----------------
 h   - hammer-on
 p   - pull-off
 b   - bend
 pb  - pre-bend
 r   - bend release (if no number after the r, then release immediately)
 /\  - slide into or out of (from/to "nowhere")
 s   - legato slide
 S   - shift slide
  - natural harmonic
[n]  - artificial harmonic
n(n) - tapped harmonic
 ~   - vibrato
 tr  - trill
 T   - tap
 TP  - trem. picking
 PM  - palm muting
\n/  - tremolo bar dip; n = amount to dip
 \n  - tremolo bar down
 n/  - tremolo bar up
/n\  - tremolo bar inverted dip
 =   - hold bend; also acts as connecting device for hammers/pulls
 <>  - volume swell (louder/softer)
 x   - on rhythm slash represents muted slash
 o   - on rhythm slash represents single note slash

Misc Legend
-----------
 |  - bar
||  - double bar
||o - repeat start
o|| - repeat end
*|  - double bar (ending)
 :  - bar (freetime)
 $  - Segno
 &  - Coda
Tempo markers -  = BPM(8/16=s8/s16), where s8 = swing 8ths, s16 = swing 16ths


Suggest correction
Creating personal tab
Creating personal tab
You can edit any tab online and save it as your Personal.

You can edit, replace or remove any tab part or add personal notes – all changes will be seen only by you.

Personal tabs can be accessed anytime from any device, even offline.
Learn more »
Give kudos to tab author, rate the tab!
1 2 3 4 5
comments
print report bad tab
2 comments total.
+1 reply
TheJManSays 89 Apr 17, 2007 11:21 AM

Looks good, but I swear in the 4th measure the bass does the huge scale thing. It's easy to hear. It has some sort of effect.

+1 reply
nexteyenate 161 Apr 24, 2008 03:39 PM

thejman is right. the bass does do the fast part. its not some effect though.

guest
You may want to rate the tab now too:
select rating
Wanna post a correction for this tab? Suggest correction