Oops, an error
Loading. Please wait.

The Willing Well Iii Apollo I The Telling Truth bass

version 1
version 1

Whole song

Interactive

2,940 views 1 this week
no commentswrite comment
1 2 3 4 5
x 3
add to favorites
×
Save as Personal and add changes to this tab that will be seen only by you. Learn more ›
×
You can save this tab as Personal to edit and correct it or add notes. All changes will be seen only by you. Learn more »
launch autoscroll
font size
0
reset
guitar tuner
edit
Autoscroll
slow
fast
+/-
esc
set tempo
stop
Author
Difficulty
-------------------------------------------------------------------------
the willing well:apolloII the telling truth  - Coheed And Cambria
-------------------------------------------------------------------------------
Tabbed by:Me
Email:swisdude@hotmail.co.uk

Tuning:Drop all strings down one fret

Again This is another tab i am convinced i got 100% correct. I took my time on this as 
is one of my favourite songs. So enjoy it, it really is a great bassline.
 Verse
  Moderately Fast Q=162
 4/4
  Gtr I
  E E E E E E E E   +E  E E E E E E E   E E E E E E E E
|-----------------|-------------------|-----------------|
|---7-5-4---------|-------------------|-----------------|
|---------7-5-4---|-------------------|---------------7-|
|---------------2-|-(2)-2-3---2---3---|-2---3---2-0-----|


  +E  E E E E E E E   E E E E E E E E
|-------------------|------------------|
|-------------------|------------------|
|-(7)---------------|---------------2--|
|-----2-3---2---3---|-2---3---2-0------|


  +E  E E E E E E E   E E E E E E E E   E E E E E E E E   E E E E E E E E
|-------------------|-----------------|-----------------|------------------|
|-------4---4-------|-----4-5-4-2-----|-----4---4-------|------------------|
|-(2)-2---2---2---2-|---2---------5-4-|---2---2---2-2-2-|-2-2-2-2-4-5-4----|
|-------------------|-----------------|-----------------|---------------2--|


  +E  E E E E E E E   E E E E E E E E   E E E E E E E E   E E E E E E E E
|-------------------|-----------------|-----------------|------------------|
|-------------------|-----------------|-----------------|------------------|
|-------------------|---------------7-|-7-7-------------|---------------2--|
|-(2)-2-3---2---3---|-2---3---2-0-----|-----3---2---3---|-2---3---2-0------|


  +E  E E E E E E E   E E E E E E E E   E E E E E E E E   E E E E E E E E
|-------------------|-----------------|-----------------|------------------|
|-------4---4-------|-------4-5-4-----|-----4---4-------|---5-5-4-2--------|
|-(2)-2---2---2---2-|---2---------5-4-|---2---2---2-2-2-|-2---------5-4----|
|-------------------|-----------------|-----------------|---------------2--|


  +E  E E E E E E E   E E E E E E E E   +E  E E E E E E E   E E E E E E E E
|-------------------|-----------------|-------------------|------------------|
|-------------------|-----------------|-------------------|------------------|
|-------------------|---------------7-|-(7)---------------|---------------2--|
|-(2)-2-3---2---3---|-2---3---2-0-----|-----2-3---2---3---|-2---3---2-0------|


  +E  E E E E E E E   E E E E E E E E   E E E E E E E E   E E E E E E E E
|-------------------|-----------------|-----------------|------------------|
|-------4---4-------|-----4-5-4-2-----|-----4---4-----4-|-4-----4-4--------|
|-(2)-2---2---2---2-|---2---------5-4-|---2---2---2-2---|---2-2-----2-0----|
|-------------------|-----------------|-----------------|---------------2--|


  +E  E E E E E E E   E E E E E E E E   E E E E E E E E   E E E E E E E E
|-------------------|-----------------|-----------------|------------------|
|-------------------|-----------------|-----------------|------------------|
|-------------------|---------------7-|-7-7-------------|---------------2--|
|-(2)-2-3---2---3---|-2---3---2-0-----|-----3---2---3---|-2---3---2-0------|


  E E E E E E E E   E E E E E E E E   E E E E E E E E   E E E E E E E E
|-----------------|-----------------|-----------------|------------------|
|-----4---4-------|-----------------|-----------------|---4-2---2--------|
|-2-2---2---2---2-|---2---2---2---2-|---2-2-2-3-2-2-2-|-2-----5---4-0----|
|-----------------|-----------------|-----------------|---------------2--|


                                    Gtr II  Gtr I                         Gtr II
  +E  E E E E E E E   E E E E E E E E   +E  E E E E E E E   E E E E E E E E
|-------------------|-----------------|-------------------|------------------|
|-------------------|-----------------|-------------------|------------------|
|-------------------|---------------7-|-(7)-7-------------|---------------2--|
|-(2)-2-3---2---3---|-2---3---2-0-----|-------3---2---3---|-2---3---2-0------|


      Gtr I
  +E  E E E E E E E   E E E E E E E E   E E E E E E E E   E E E E E E E E
|-------------------|-----------------|-----------------|------------------||
|-------4---4-------|-----4---4-------|---4-5-4-2-------|---7-5-4-2--------||
|-(2)-2---2---2---2-|---2---2---2-2-2-|-----------5-4-2-|-----------5-4----||
|-------------------|-----------------|-----------------|---------------3--||


 Pre-Chorus
  $
  $$
  +E  E E E E E E E   +E  E E E E E E E   E E E E E E E E   E E E E E E E E
|-------------------|-------------------|-----------------|------------------|
|-------------------|-------2-0---------|-----4---5---4---|-----2---2-4------|
|-------5---------0-|-(0)-0-----4---0-2-|---2---2---2---2-|-0-2---0----------|
|-(3)-5---5-5-5-----|-------------3-----|-----------------|---------------3--|


  +E  E E E E E E E   +E  E E E E E E E   E E E E E E E E   E E E E E E E E
|-------------------|-------------------|-----------------|------------------||
|-------------------|-------2-0---------|-----4---5---4---|-----2---2-4------||
|-------5---------0-|-(0)-0-----4---0-2-|---2---2---2---2-|-0-2---0----------||
|-(3)-5---5-5-5-----|-------------3-----|-----------------|---------------3--||


 Chorus
  +E  E E E E E E E   E E E E E E E E   +E  E E E e. e. e   e. e. e e. e. E
|-------------------|-----------------|-------------------|------------------|
|-------------------|-----------------|-------------------|------------------|
|-------------------|---------------2-|-(2)-------2--2----|-2-----2-2--0-----|
|-(3)-3---2-3-3---2-|-3-3---2-3-5-----|-----0---0-------0-|----0----------3--|


                                        H.=H
  +E  E E E E E E E   E E E E E E E E   +E  E E E e. e. e
|-------------------|-----------------|-------------------|
|-------------------|-----------------|-------------------|
|-------------------|---------------2-|-(2)-------2--2----|
|-(3)-3---2-3-3---2-|-3-3---2-3-5-----|-----0---0-------0-|


                SlowH=HQ=135
                        To Coda
                        To Coda
  e. e. e e. e. E   +W           +Q   E E E E E E
|-----------------|------------|------------------||
|-----------------|------------|----------2-0-----||
|-2--2--2-2--0--0-|-(0)--------|-(0)----------0---||
|-----------------|------------|------0---------2-||


 Verse
  A Tempo Q=162
  +E  E E E E E E E   E E E E E E E E   +E  E E E E E E E   E E E E E E E E
|-------------------|-----------------|-------------------|------------------|
|-------------------|-----------------|-------------------|------------------|
|-------------------|---------------7-|-(7)---------------|---------------2--|
|-(2)-2-3---2---3---|-2---3---2-0-----|-----2-3---2---3---|-2---3---2-0------|


  +E  E E E E E E E   E E E E E E E E   E E E E E E E E   E E E E E E E E
|-------------------|-----------------|-----------------|------------------|
|-------4---4-------|-----4-5-4-2-----|-----4---4-----4-|-4----------------|
|-(2)-2---2---2---2-|---2---------5-4-|---2---2---2-2---|---2-2-4-4-5-5----|
|-------------------|-----------------|-----------------|---------------2--|


  +E  E E E E E E E   E E E E E E E E   +E  E E E E E E E   E E E E E E E E
|-------------------|-----------------|-------------------|------------------|
|-------------------|-----------------|-------------------|------------------|
|-------------------|---------------7-|-(7)---------------|---------------2--|
|-(2)-2-3---2---3---|-2---3---2-0-----|-----2-3---2---3---|-2---3---2-0------|


                                                            D.S. al Coda
  +E  E E E E E E E   E E E E E E E E   E E E E E E E E   E E E E E E E E
|-------------------|-----------------|-----------------|------------------||
|-------4---4-------|-----4---4-------|-----4-----4-2---|---4-5-4-2--------||
|-(2)-2---2---2---2-|---2---2---2-2-2-|---2---2-2-------|-----------5-4----||
|-------------------|-----------------|-----------------|---------------3--||


                      Chorus
                 Faster Q=160
  &
   H     E  E  E E     +E  E E E E E E E   +E  E E E E E E E
|------------------||--------------------|-------------------|
|------------------||o-------------------|-------------------|
|-(0)----0/-2/-----||o-------------------|---------------0-2-|
|----------------3-||--(3)-3-3-3-3-3---0-|-(0)-0-0-0-2-3-----|


  +E  E E E E E E E   E E E E E E E E    4x
|-------------------|--------------------||
|-------------------|-------------------o||
|-(2)-2-2-2-2-2---5-|---4---5---4-------o||
|-------------------|---------------3----||


  Slower Q=154
  +W           +H..       E
|------------|--------------||
|------------|--------------||
|------------|------------5-||
|-(3)--------|-(3)----------||


 Guitar Break
  +E  E E E E E E E   e. e. E e. e. E   +Q   E E E Q  E   E E E E E E E E
|-------------------|-----------------|-----------------|-----------------|
|-----------7-7-7-7-|-----------------|-----------------|-----------------|
|-(5)-0-5-----------|-5--5--5-4--0----|---------------0-|-2---2---2-4---5-|
|-------------------|---------------3-|-(3)----2-3------|-------2---------|


  E E E E E E E E   e. e. E e. e. E   +Q   E E E Q  E   E E E E E Q  E
|-----------------|-----------------|-----------------|----------------|
|---------7-7-7-7-|-----------------|-----------------|----------------|
|-5-0-5-----------|-5--5--5-4--0----|---------------0-|-2---2---2-4----|
|-----------------|---------------3-|-(3)----2-3------|-------2------x-|


  E E E E E Q  E   E E E E Q.   E   E E E E E Q  E   E E E E E E E E
|----------------|----------------|----------------|------------------|
|-------4--------|----------------|-------4--------|------------------|
|-----5-----5----|-----5-5------0-|-----5-----5----|-----5-5-----9-7--|
|-2-3----------x-|-2-2------------|-2-3----------x-|-2-2-------3------|


  E E E E E E E E   E E E E E Q  E   E E E E E E E E   E E E E E Q  E
|-----------------|----------------|-----------------|-----------------|
|-----------------|---7-5-4--------|-----------------|-----------------|
|---5-4-----7---5-|---------7-4--7-|---5-4-----7---5-|---7-5-4---------|
|-3-----3-3-------|----------------|-3-----3-3-------|---------7-5--x--|


  E E E E E Q  E   E E E E Q.   E   E E E E E Q  E   E E E E E E E E
|----------------|----------------|----------------|------------------|
|-------4--------|----------------|-------4--------|------------------|
|-----5-----5----|-----5-5------0-|-----5-----5----|-----5-5-----9-7--|
|-2-3----------x-|-2-2------------|-2-3----------x-|-2-2-------3------|


  E E E E E E E E   E E E E E Q  E   E E E E E E E E   E E E E E Q  E
|-----------------|----------------|-----------------|-----------------||
|-----------------|---7-5-4--------|-----------------|-----------------||
|---5-4-----7---5-|---------7-4--7-|---5-4-----7---5-|---7-5-4---------||
|-3-----3-3-------|----------------|-3-----3-3-------|---------7-5--0--||


 Interlude
  Faster Q=156
  Q  H.        H.      E E   Q   H    E E   Q   H    E E   Q   H.
|------------|-------------|--------------|--------------|-----------|
|------------|-------------|--------------|--------------|-----------|
|-2----------|---------4---|-5\-------4---|-5\-------4---|-2\--------|
|------------|-------------|--------------|--------------|-----------|


  H.      E E   Q   H    E E   Q   H    E E   Q   H.
|-------------|--------------|--------------|-----------|
|-------------|--------------|--------------|-----------|
|---------4---|-5\-------4---|-5\-------4---|-2\--------|
|-------------|--------------|--------------|-----------|


    Gtr II      Gtr I
  E E E E E E E E   +E   H    E E E   +E   H    E E E   +E   E H.
|-----------------|-----------------|-----------------|--------------|
|-----------------|-----------------|-----------------|--------------|
|-----0---2-4---5-|-(5)\------4---5-|-(5)\------4---2-|-(2)\---------|
|---2---2---------|-----------------|-----------------|--------------|


    Gtr II Gtr I
  E E E Q  E E E   +E   H    E E E   +H     E Q.
|----------------|-----------------|---------------|
|----------------|-----------------|---------------|
|-----0----4---5-|-(5)\------4---5-|-(5)s===0s7----|
|---2------------|-----------------|---------------|


  W          W           H.      E E   E E H    Q
|----------|-----------|-------------|---------------|
|----------|-----------|-------------|-7-9-7---------|
|----------|-----------|---------7-9-|---------------|
|-7--------|-7\--------|-5-----------|----------5\---|


  W          +W           W          W
|----------|------------|----------|------|
|----------|------------|----------|------|
|----------|------------|----------|------|
|-3--------|-(3)--------|-2--------|-3----|


  H    +Q    Q    E E H.        H    Q  E E   Q  Q  E E E E
|---------------|-------------|-------------|----------------|
|---------------|-------------|-------------|----------------|
|---------------|-------------|-------------|----------------|
|-7----(7)\-----|-7---7-------|-5----5----5-|----5--5-7-5s2--|


  W          +W           W          W
|----------|------------|----------|------||
|----------|------------|----------|------||
|----------|------------|----------|------||
|-3--------|-(3)--------|-2--------|-3----||


 Bridge
  Full Time Q=154
  E H..         H..       E   E H..         H..       E
|-------------|-------------|-------------|--------------|
|-------------|-------------|-------------|-----------7--|
|-5-----------|-----------4-|-5-----------|--------------|
|-------------|-------------|-------------|--------------|


  E E E E E E E E   E E E E E E E E   E E E E E E E E   E E E E E E E E
|-----------------|-----------------|-----------------|------------------|
|-----7---5-5-4---|-----7---5---4---|-----7-5-4-------|------------------|
|-5-5---5-------5-|-5-5---5---5---5-|-4-4-------7-4-5-|-7---7------------|
|-----------------|-----------------|-----------------|---5---5-5-7-5-2--|


  E E E E E E Q    E E E E E E E E   E E E E E E Q    E E E E E E E E
|---------4------|-----------------|---------4------|------------------|
|-------------5--|-----5---4-5-4---|-------------5--|------------------|
|-----5----------|-------5-------5-|-----5----------|------------------|
|-3-3---3--------|-3-3-------------|-3-3---3--------|-3-3-5-5-7-7-9-9--|


  E E E E E E E E   E E E E E E E E   E E E E E E E E   E E E E E E E E
|-----------------|-----------------|-----------------|------------------|
|-----7---5---4---|-----7---5---4---|-----7-5-4-------|------------------|
|-5-5---5---5---5-|-5-5---5---5---5-|-4-4-------7-4-5-|-7---7------------|
|-----------------|-----------------|-----------------|---5---5-5-7-5-2--|


  E E E E E E Q    E E E E E E E E   E E E E E E Q    E E E E E E E  E
|---------4------|-----------------|---------4------|-------------------|
|-------------5--|-----5---4-5-4---|-------------5--|-------------------|
|-----5----------|-------5-------5-|-----5----------|-------------------|
|-3-3---3--------|-3-3-------------|-3-3---3--------|-3-3-5-5-7-7-9-10--|


  E E E E E E E E   E E E E E E E E   E E E E E E E E   E E E E E E E E
|-----------------|-----------------|-----------------|------------------|
|-----------------|-----------------|-----------------|------------------|
|-5-5-5-5-5-5-5-5-|-5-5-5-5-5-5-5-7-|-4-4-4-4-4-4-4-5-|-7-0-0-0-0-0-4-5--|
|-----------------|-----------------|-----------------|------------------|


  E E E E E E E E   E E E E E E E E   E E E E E E E E   E E E E E E E E
|-----------------|-----------------|-----------------|------------------|
|-----------------|-----------------|-----------------|------------------|
|-----------------|-----------------|-----------------|------------------|
|-3-3-3-3-3-3-3-3-|-3-3-3-3-3-3-3-3-|-3-3-3-3-3-3-3-3-|-3-3-5-5-7-7-9-9--|


  E E E E E E E E   E E E E E E E E   E E E E E E E E   E E E E E E E E
|-----------------|-----------------|-----------------|------------------|
|-----------------|-----------------|-----------------|------------------|
|-5-5-5-5-5-5-5-5-|-5-5-5-5-5-7-5-0-|-4-4-4-4-4-4-4-5-|-7-0-0-0-0-2-0----|
|-----------------|-----------------|-----------------|---------------2--|


  E E E E E E Q    E E E E E E Q    E E E E E E Q    E E E E E E E E
|----------------|----------------|----------------|------------------||
|----------------|----------------|----------------|------------------||
|-------------5--|-------------5--|-------------5--|------------------||
|-3-3-3-3-3-3----|-3-3-3-3-3-3----|-3-3-3-3-3-3----|-3-3-3-3-3-3-3-5--||


 Interlude
  Half-Time Feel Q=160
  E Q  +E   E E Q    E E E E E E E E   E Q  +E   E E Q    E E E E E E E E
|------------------|-----------------|------------------|------------------|
|------------------|-----------------|------------------|------------------|
|-5-4--(4)\--------|-----------------|-5-4--(4)\--------|------------------|
|-----------2-2----|-2-2---2-2-3-2-0-|-----------2-2----|-2-2---2-2-3-2-0--|


                                                              H.=H
  E E +E   E E E E E   E E E E E E E E   E E +E   E E E E E   e. e. E e. e. E
|--------------------|-----------------|--------------------|------------------|
|--------------------|-----------------|--------------------|------------------|
|-5-4-(4)\-----------|-----------------|-5-4-(4)\-----------|-5--4--2-5--4--0--|
|----------0-2-2---0-|-2-2---0-2-3-2-0-|----------0-2-2---0-|------------------|


  Q=13H=H      A Tempo Q=164
                              D.S.S. al Dbl. Coda
  +E   E  E  E  E  E  E  E    E  E  E  E  E  E E E
|--------------------------|-----------------------||
|-----12-12-12-12-12-12-12-|-12-12-12-12-12-12-0---||
|-(0)----------------------|-----------------------||
|--------------------------|---------------------3-||


                          Out-Chorus
                     Faster Q=160
  &&
   H      E  E  +E   E     +E  E E E E E E E
|----------------------||--------------------|
|--------11-12-(12)\---||o-------------------|
|-(0)------------------||o-------------------|
|--------------------3-||--(3)-3-3-3-3-3---0-|


                                          1.,2.,3.,4.,5.,6.,7.
  +E  E E E E E E E   +E  E E E E E E E   E E E E E E E E    7x
|-------------------|-------------------|--------------------||
|-------------------|-------------------|-------------------o||
|---------------0-2-|-(2)-2-2-2-2-2---5-|---4---5---4-------o||
|-(0)-0-0-0-2-3-----|-------------------|---------------3----||


  8.
                \7_____________
  E E E E E E E E     +W
|-------------------|--------*|
|-------------------|--------*|
|---4---5---4-------|--------*|
|---------------3---|-(3)----*|

| /  slide up
| \  slide down
| h  hammer-on
| p  pull-off
| ~  vibrato
| +  harmonic
| x  Mute note
===============================================================================

            
            
Suggest correction
Creating personal tab
Creating personal tab
You can edit any tab online and save it as your Personal.

You can edit, replace or remove any tab part or add personal notes – all changes will be seen only by you.

Personal tabs can be accessed anytime from any device, even offline.
Learn more »
Give kudos to tab author, rate the tab!
1 2 3 4 5
comments
print report bad tab
guest
You may want to rate the tab now too:
select rating
Wanna post a correction for this tab? Suggest correction