Oops, an error
Loading. Please wait.

The Willing Well Iv The Final Cut Tab

version 1
version 1

Whole song

Interactive

53,591 views 51 this week
15 commentsread comments
1 2 3 4 5
excellent!
x 30
add to favorites
launch autoscroll
font size
0
reset
how to read this tab
guitar tuner
Autoscroll
slow
fast
+/-
esc
set tempo
stop
Help us to improve Ultimate-Guitar.com Take our survey!
×
Author
Tuning
D# G# C# F# A# D#
Coheed and Cambria
The Final Cut
BY: Wh1tey (cobalt And Calcium)        
OnlyonTuesdays (Ultimate-guitar.com     | My Credit!!!! 
OnlyonThursdays (mxtabs.net)           /


Tuning: Half Step Down Eb Ab Db Gb Bb eb


Intro



Guitar 1
                        Part 1
eb|----------------------------------------------------------||
Bb|----------------------------------------------------------||
Gb|--------0----0------0---0-------0---0--------0---0--------|| 
Db|------9----9------9---9-------9---9--------9---9----------|| 
Ab|----7-----------7-----------7------------7----------------||
Eb|--0-----------0-----------0------------0------------------||


                       Part 2
eb|---------------------------|--|
Bb|-----------*---------------|--|
Gb|-------0-4-4b-(5)-0--------|--| 
Db|-----5---------------------|x4| 
Ab|---3-----------------------|--|
Eb|---------------------------|--|


Guitar 2
        
      Part 1                         Part 2 
eb|--------------------|--|---------------------------------|--|
Bb|--------10-8-7------|--|--------8--10b(12)(12)(11)-8-----|--|
Gb|-----9----------9-7-|--|------9--------------------------|--| 
Db|--------------------|x4|---10----------------------------|x4| 
Ab|--------------------|--|---------------------------------|--|                                  
Eb|--------------------|--|---------------------------------|--| 


          This one goes with part 1
eb|----10--------------------------|--|
Bb|-------12-11-10-8---------------|--|
Gb|-------------------9-7-9--------|--| 
Db|--------------------------------|x4| 
Ab|--------------------------------|--|
Eb|--------------------------------|--|

eb|-----------------------------|--|----10b(12)-12-10----10-----------------||
Bb|--------8-10b(12)(12)(11)-8--|--|------------------12----12-10-8---------||
Gb|------9----------------------|--|---------------------------------9------|| 
Db|---10------------------------|x3|----------------------------------------||
Ab|-----------------------------|--|----------------------------------------|| 
Eb|-----------------------------|--|----------------------------------------||



Verse

Guitar 1

eb|----------------|--|------------------|--|
Bb|----------------|--|------------------|--|
Gb|-------0--------|--|---------0-4-0----|--|
Db|-----9---9------|x4|-------5-------5--|x4|
Ab|---7-------7----|--|-----3------------|--|
Eb|-0--------------|--|------------------|--|
    . . . . . .             . . . . . .

Guitar 2

eb|------------------------||
Bb|------------------------||Scratch the strings a little bit
Gb|--9---------------------|| And hit each chord a few times
Db|---------------------5--|| Listen to the song
Ab|-----------2---------3--|| Its hard to tab
Eb|-----------0------------||

                    
eb|--------|--|--------------------------------------||
Bb|----8p7-|--|----------10-8------------------------||
Gb|----7-7-|--|--------9------11-9-7-9~--------------|| 
Db|--------|x4|--------------------------------------|| 
Ab|--------|--|--------------------------------------||
Eb|--------|--|--------------------------------------||


Chorus

Guitar 1

eb|----------------|--|------------------|--|
Bb|----------------|--|------------------|--|
Gb|--------0---0---|--|---------0-4-0----|--|
Db|------9---9-----|x4|-------5-------5--|x4| Dont P.M
Ab|----7-----------|--|-----3------------|--|
Eb|--0-------------|--|------------------|--|


Guitar 2

eb|----------------|--|-----------------|--|
Bb|----------------|--|-----------------|--|
Gb|----------------|--|------5----------|--| 
Db|---2------------|x4|------5----------|x4| not sure about the second guitar
Ab|---2------------|--|------3----------|--|
Eb|---0------------|--|-----------------|--|




SOLO (claudios part coming soon)


Travis  He uses a voice box here im not sure if he used wah also
    
eb|-----10-----------------------------------10---------------------------------||
Bb|--10b--(12)10p8p7----------------------10b--(12)10p8p7-----------------------||
Gb|------------------9--9p7---7~---9/---------------------9-9p7---7~--9~-9~-9~--|| 
Db|-------------------------9-----------------------------------9---------------|| 
Ab|-----------------------------------------------------------------------------||
Eb|-----------------------------------------------------------------------------||

eb|--22b(24)-22-20-19-20p19----22b(24)-22-20-19-20p19-----------||
Bb|---------------------------------------------------20--------||
Gb|-------------------------------------------------------------|| 
Db|-------------------------------------------------------------|| 
Ab|-------------------------------------------------------------||
Eb|-------------------------------------------------------------||

eb|---------------------------------------------10p8p7------10p8p7-----7---||
Bb|------------------------------------------10---------10---------10------||
Gb|----------4-----------------7-9~-9~-9~----------------------------------|| 
Db|--0-4-5-7---7-5-4-5-4---5-7---------------------------------------------|| 
Ab|------------------------------------------------------------------------||
Eb|------------------------------------------------------------------------||

eb|---------------------------------10-------------------------------------||
Bb|---7-----------7--------------------12-10-------------------------------||
Gb|---9b(11)------9b(11)-9p7--9-9~------------12-11-12~-12p11-9-9~~--------|| 
Db|-----------9~~----------------------------------------------------------|| 
Ab|------------------------------------------------------------------------||
Eb|------------------------------------------------------------------------||

eb|-----------------------------12--15---15b(17)----||
Bb|--10-12-10-12-13--12--12--12---------------------||
Gb|----------------------14b-14b--------------------|| 
Db|-------------------------------------------------|| 
Ab|-------------------------------------------------||
Eb|-------------------------------------------------||


Claudios part       Enjoy

eb|------------------------------------------------------------------------------||
Bb|-------17--15~----------------------------------------------------------------||
Gb|14-16-----------16\----------12-14---16p14---------12-14-16-------14p12-------|| 
Db|----------------17\----12h14---------------17--14-------------14--------14/---|| 
Ab|------------------------------------------------------------------------------||
Eb|------------------------------------------------------------------------------||

eb|-----------------------------------------------------------------------------------||
Bb|-----------------------------------------------------------------------------------||
Gb|------------------------------------------------------------------12h14-16p14p12---|| 
Db|--12h14p12-9h12p9------------------------------------------12h14-----------------14|| 
Ab|-------------------12-10---10-12/14--12p10-------------14--------------------------||
Eb|-------------------------------------------12---12/--------------------------------||

eb|----------------------------------------------------17b--17b---15-17-12---15/------||
Bb|-------------------------------12~---17b--15-17------------------------------------||
Gb|--------------------12-14-11---------------------16~-------------------------------|| 
Db|-12-10-10-10-9------12-12-12-------------------------------------------------------|| 
Ab|---------------10~-----------------------------------------------------------------||
Eb|-----------------------------------------------------------------------------------||

eb|--------15-15--14------------------------------------------------------------------||
Bb|--15-17----------17-15-13p12---12-13-15b(17)-15-13-12-12h13p12/10------------------||
Gb|------------------------------------------------------------------------12h14-16p14|| 
Db|------------------------------------------------------------------12h14------------|| 
Ab|-----------------------------------------------------------------------------------||
Eb|-----------------------------------------------------------------------------------||

eb|-----------------------------------------------------------------------------------||
Bb|--------------------------------------------12-------------------------------------||
Gb|--------------------------------------------12-----11-11-11------------------------||
Db|--17-14-12----------------------12-14-14-14----14/----------12-12-12-14-14-14------||
Ab|-----------15-14-12----------------------------------------------------------------||
Eb|--------------------15-14-12-------------------------------------------------------||

eb|-----------------------------------------------------------------------------------||
Bb|------------------------------12---------------------------------------------------||
Gb|------------------------------12-----11-11-11--------------------------------------|| 
Db|-10-10-10-9-7-----12-14-14-14----14/----------12-12-12-14-14-14-10-10-10-9-7-------|| 
Ab|-----------------------------------------------------------------------------------||
Eb|-----------------------------------------------------------------------------------||

eb|----------------------------14-------------------12--12-----14---14----17b17b17b17b||
Bb|-15b-15-13-12-12h13p12---15b--15-13-12-12h13p12--15b----15--17b-----17-------------||
Gb|-----------------------------------------------------------------------------------|| 
Db|-----------------------------------------------------------------------------------|| 
Ab|-----------------------------------------------------------------------------------||
Eb|-----------------------------------------------------------------------------------||

eb|-------------------------------------------------------------||
Bb|-15-17----17--------15-----------13--------12----------------||
Gb|-------16----16--14----14--12-12----12--11----11-------------|| 
Db|-------------------------------------------------------------|| 
Ab|-------------------------------------------------------------||
Eb|-------------------------------------------------------------||

eb|----------------------------------------------------------------------------------||
Bb|---------17--------15-----------13--------12--------------------------------------||
Gb|---16-16----16--14----14--12-12----12--11----11----9~~-11-9-7-7s5-5s4-------------|| 
Db|----------------------------------------------------------------------------------|| 
Ab|----------------------------------------------------------------------------------||
Eb|----------------------------------------------------------------------------------||
Suggest correction
What's this?
You can suggest a correction to this tab. Community and Mods will review your correction and vote to approve or reject it.
comments
print report bad tab
15 comments total. Showing first comments.
0 reply
UnsignedRecords 1,891 wrote on September 29 2005, 02:15 pm

sounds awesome. 5 stars.

0 reply
Kidd_Vicious696 76 wrote on January 10 2006, 10:04 pm

this is awesome. nice job.

0 reply
SquierGuitarist 29 wrote on May 13 2006, 11:56 pm

This is a great tab, very nice job.

5 stars

guest
You may want to rate the tab now too:
select rating
Please do not post tabs as comments. Select "correction" instead!