Oops, an error
Loading. Please wait.

Welcome Home Tab

version 1
99,447 views 57 this week
7 commentsread comments
1 2 3 4 5
x 10
add to favorites
launch autoscroll
font size
0
reset
how to read this tab
guitar tuner
Autoscroll
slow
fast
+/-
esc
set tempo
stop
Help us to improve Ultimate-Guitar.com Take our survey!
×
Author
Difficulty
intermediate
Artist: Coheed and Cambria
Song: Welcome Home (Acoustic)

e|----------------------------------------------------------------------|
B|----------------------------------------------------------------------|
G|o------------7v----------------------------------7v----------------o--|
D|o-------9-10---10-9-7--7-10-9-7-------------9-10---10-9-4-7-5-4-------|
A|------7-------------------------10-9------7-------------5-9-7-5-------|
E|--0-0---------------------------------0-0-----------------------------|

e|----------------------------------------------------------------------|
B|----------------------------------------------------------------------|
G|o------------7v----------------------------------7v----------------o--|
D|o-------9-10---10-9-7--7-10-9-7-------------9-10---10-9-4-7-5-4-------|
A|------7-------------------------10-9------7-------------5-9-7-5-------|
E|--0-0---------------------------------0-0-----------------------------|

e|----------------------------------------------------------------------|
B|----------------------------------------------------------------------|
G|----------------------------------------------------------------------|
D|-2-----------------------------------2-----------------4-7-5-4--------|
A|-2-----------------------------------2-----------------5-9-7-5--------|
E|-0-----------------------------------0--------------------------------|

e|-------------------------------------------------------------------------|
B|-------------------------------------------------------------------------|
G|-------------------------------------------------------------------------|
D|-2----------0h2p-0h2p-0h2p-0h2----------2-----------------4-7-5-4--------|
A|-2-----------------------------------2--------------------5-9-7-5--------|
E|-0-----------------------------------0-----------------------------------|

e|--------------------------------------------------------------|
B|--------------------------------------------------------------|
G|--------------------------------------------------------------|
D|---------------------------------7-----------------7----------|
A|-----9-10-9-----9-10-9----7-9-10---10-9-7---7-9-10---10-9-7---|
E|-0-0--------0-0-----------------------------------------------|

e|--------------------------------------------------------------|
B|--------------------------------------------------------------|
G|--------------------------------------------------------------|
D|---------------------------------7-----------------7----------|
A|-----9-10-9-----9-10-9----7-9-10---10-9-7---7-9-10---10-9-7---|
E|-0-0--------0-0-----------------------------------------------|

e|----------------------------------------------------------------------|
B|----------------------------------------------------------------------|
G|o------------7v----------------------------------7v----------------o--|
D|o-------9-10---10-9-7--7-10-9-7-------------9-10---10-9-4-7-5-4-------|
A|------7-------------------------10-9------7-------------5-9-7-5-------|
E|--0-0---------------------------------0-0-----------------------------|

e|----------------------------------------------------------------------|
B|----------------------------------------------------------------------|
G|o------------7v----------------------------------7v----------------o--|
D|o-------9-10---10-9-7--7-10-9-7-------------9-10---10-9-4-7-5-4-------|
A|------7-------------------------10-9------7-------------5-9-7-5-------|
E|--0-0---------------------------------0-0-----------------------------|

e|--------------------------------------------------------------|
B|--------------------------------------------------------------|
G|--------------------------------------------------------------|
D|---------------------------------7-----------------7----------|
A|-----9-10-9-----9-10-9----7-9-10---10-9-7---7-9-10---10-9-7---|
E|-0-0--------0-0-----------------------------------------------|

e|--------------------------------------------------------------|
B|--------------------------------------------------------------|
G|--------------------------------------------------------------|
D|---------------------------------7-----------------7----------|
A|-----9-10-9-----9-10-9----7-9-10---10-9-7---7-9-10---10-9-7---|
E|-0-0--------0-0-----------------------------------------------|

e|--------------------------------------------------------------|
B|--------------------------------------------------------------|
G|--------------------------7-7-7-------------------------------|
D|-9-9-9-(x4)-10-10-10-(x4)-x-x-x-(x4)-9-9-9-(x2) 9-9-9-9-9-7---|
A|-7-7-7------7--7--7-------7-7-7------7-7-7------7-7-7-7-7-5---|
E|--------------------------------------------------------------|

e|--------------------------------------------------------------|
B|--------------------------------------------------------------|
G|--------------------------7-7-7-------------------------------|
D|-9-9-9-(x4)-10-10-10-(x4)-x-x-x-(x4)-9-9-9-(x2) 9-9-9-9-9-7---|
A|-7-7-7------7--7--7-------7-7-7------7-7-7------7-7-7-7-7-5---|
E|--------------------------------------------------------------|

e|---------------------------------------------------|
B|---------------------------------------------------|
G|---------------------------------------------------|
D|------------------------------9-10-9-7-------------|
A|-----9-10-9-7---9---(x2)---------------10-9-7-(x2)-|
E|-0-0----------7---7-------0-0----------------------|

e|---------------------------------------------------|
B|---------------------------------------------------|
G|---------------------------------------------------|
D|------------------------------9-10-9-7-------------|
A|-----9-10-9-7---9---(x2)---------------10-9-7-(x2)-|
E|-0-0----------7---7-------0-0----------------------|

e|---------------------------------------------------|
B|---------------------------------------------------|
G|---------------------------------------------------|
D|------------------------------9-10-9-7-------------|
A|-----9-10-9-7---9---(x2)---------------10-9-7-(x2)-|
E|-0-0----------7---7-------0-0----------------------|

e|---------------------------------------------------|
B|----------------------------------1------------1---|
G|-------2*-------------------------2------------0---|
D|-3-3-3----(x3)-3-3-3--3-3--3------2------------2---|
A|-3-3-3---------3-3-3--3-3--3------0------------3---|
E|-1-1-1---------1-1-1--1-1--1-----------------------|

e|---------------------------------------------------|
B|----------------------------------1------------1---|
G|-------2*-------------------------2------------0---|
D|-3-3-3----(x3)-3-3-3--3-3--3------2------------2---|
A|-3-3-3---------3-3-3--3-3--3------0------------3---|
E|-1-1-1---------1-1-1--1-1--1-----------------------|

e|--------------------------------------------------------------|
B|--------------------------------------------------------------|
G|--------------------------7-7-7-------------------------------|
D|-9-9-9-(x4)-10-10-10-(x4)-x-x-x-(x4)-9-9-9-(x2) 9-9-9-9-9-7---|
A|-7-7-7------7--7--7-------7-7-7------7-7-7------7-7-7-7-7-5---|
E|--------------------------------------------------------------|

e|--------------------------------------------------------------|
B|--------------------------------------------------------------|
G|--------------------------7-7-7-------------------------------|
D|-9-9-9-(x4)-10-10-10-(x4)-x-x-x-(x4)-9-9-9-(x2) 9-9-9-9-9-7---|
A|-7-7-7------7--7--7-------7-7-7------7-7-7------7-7-7-7-7-5---|
E|--------------------------------------------------------------|

e|---------------------------------------------------|
B|---------------------------------------------------|
G|---------------------------------------------------|
D|------------------------------9-10-9-7-------------|
A|-----9-10-9-7---9---(x2)---------------10-9-7-(x2)-|
E|-0-0----------7---7-------0-0----------------------|

e|---------------------------------------------------|
B|---------------------------------------------------|
G|---------------------------------------------------|
D|------------------------------9-10-9-7-------------|
A|-----9-10-9-7---9---(x2)---------------10-9-7-(x2)-|
E|-0-0----------7---7-------0-0----------------------|

e|---------------------------------------------------|
B|----------------------------------1------------1---|
G|-------2*-------------------------2------------0---|
D|-3-3-3----(x3)-3-3-3--3-3--3------2------------2---|
A|-3-3-3---------3-3-3--3-3--3------0------------3---|
E|-1-1-1---------1-1-1--1-1--1-----------------------|

e|---------------------------------------------------|
B|----------------------------------1------------1---|
G|-------2*-------------------------2------------0---|
D|-3-3-3----(x3)-3-3-3--3-3--3------2------------2---|
A|-3-3-3---------3-3-3--3-3--3------0------------3---|
E|-1-1-1---------1-1-1--1-1--1-----------------------|

e|--------------8------------8--------8-----12----8-----12---|
B|-------10-----------10-------------------------------------|
G|-----------------------------------------------------------|
D|--------------------------------7-7---7-7---7-7---7-7------|
A|----8-8---8-8---8-8---8-8----------------------------------|
E|-----------------------------------------------------------|

e|--------------8------------8--------8-----12----8-----12---|
B|-------10-----------10-------------------------------------|
G|-----------------------------------------------------------|
D|--------------------------------7-7---7-7---7-7---7-7------|
A|----8-8---8-8---8-8---8-8----------------------------------|
E|-----------------------------------------------------------|

[Solo]
e|--------------------------------------------------------|
B|--------------------------------------------------------|
G|---16p14p12-16p14p12-16p14p12-16p14p12-16p14p12-16p14p12|
D|--------------------------------------------------------|
A|--------------------------------------------------------|
E|--------------------------------------------------------|

e|-----18b-17-15-15b-12-12-----------------|
B|-15b-----------------------------17-19^--|
G|--------------------------/16-19---------|
D|-----------------------------------------|
A|-----------------------------------------|
E|-----------------------------------------|

e|---17-17-12---15-15-12---14-14-10---12-12-8-7h8p7----7---------------|
B|--------------------------------------------------10---8-10-12/------|
G|-----------------------------------------------------------------/9--|
D|---------------------------------------------------------------------|
A|---------------------------------------------------------------------|
E|---------------------------------------------------------------------|

e|----------------------------------15^--15^-------------------|
B|-------17-16^--16^----------15h17----------------------------|
G|-14-16-------------16p14h16-------------------------9--12*^--|
D|-------------------------------------------9-10-12-----------|
A|-------------------------------------------------------------|
E|-------------------------------------------------------------|
                                            
e|------------------------------------------------------------|
B|------------------------------------------------------------|
G|---------16-------14----------------------------------------|
D|--14/16-----17-14----17-16-12---0-2-4h5p4p2p0--2-4-5--4p2p0-|
A|------------------------------------------------------------|
E|------------------------------------------------------------|

e|----------7h8h10p8p10-------------------------------------|
B|-7h8h10---------------10-8-7-8-7h8p7-7--------------------|
G|------------------------------------------9^------9^------|
D|----------------------------------------------9-------9---|
A|----------------------------------------------------------|
E|----------------------------------------------------------|

e|---19^-17-15----17p15------------------------------|
B|----------------------17-17---17p15----------------|
G|------------------------------------16-16---16p14--|
D|---------------------------------------------------|
A|---------------------------------------------------|
E|---------------------------------------------------|

e|-----------------------------------------------------|
B|-----------------------------------------------------|
G|----11---11-11--11-12---12-12---12-14--14-14--14-16--|
D|----x----x--x---x--x----x--x----x--x---x--x---x--x---|
A|--7/9----9--9---9/-10---10-10---10/12--12-12--12/14--|
E|-----------------------------------------------------|

e|--------------------------------------------------------------|
B|--------------------------------------------------------------|
G|-------2-4-5-7-9-9*^-9p7-7*^--4-4h5p4-------------------------|
D|-0-2-5--------------------------------7p5h7-7-8-7^-7h5-5h7p5~-|
A|--------------------------------------------------------------|
E|--------------------------------------------------------------|

e|------3-7-3---5-------7b--10------------------------|
B|--3-5-------5----8-10--------10b---8-7-8-7-5-7h8p7~-|
G|----------------------------------------------------|
D|----------------------------------------------------|
A|----------------------------------------------------|
E|----------------------------------------------------|

e|--------------------------------------------|
B|---7p5p0-8p5p0-12p8p0-13p8p0-12p8p0-8p5p0-7-|
G|-4------------------------------------------|
D|--------------------------------------------|
A|--------------------------------------------|
E|--------------------------------------------|

e|-----------------------------------------------|
B|---7p5p0-8p5p0-12p8p0-13p8p0-12p8p0-8p5p0-7----|
G|-5---------------------------------------------|
D|-----------------------------------------------|
A|-----------------------------------------------|
E|-----------------------------------------------|

e|-----------------------------------------------|
B|---7p5p0-8p5p0-12p8p0-13p8p0-15p12p0-13p8p0-12-|
G|-7---------------------------------------------|
D|-----------------------------------------------|
A|-----------------------------------------------|
E|-----------------------------------------------|

e|---------3-------3-------3-|
B|---5p3p0---5p3p0---5p3p0---|
G|/4-------------------------|
D|---------------------------|
A|---------------------------|
E|---------------------------|

e|--------------------------------------------------------------|
B|--------------------------------------------------------------|
G|--------------------------7-7-7-------------------------------|
D|-9-9-9-(x4)-10-10-10-(x4)-x-x-x-(x4)-9-9-9-(x2) 9-9-9-9-9-7---|
A|-7-7-7------7--7--7-------7-7-7------7-7-7------7-7-7-7-7-5---|
E|--------------------------------------------------------------|

e|--------------------------------------------------------------|
B|--------------------------------------------------------------|
G|--------------------------7-7-7-------------------------------|
D|-9-9-9-(x4)-10-10-10-(x4)-x-x-x-(x4)-9-9-9-(x2) 9-9-9-9-9-7---|
A|-7-7-7------7--7--7-------7-7-7------7-7-7------7-7-7-7-7-5---|
E|--------------------------------------------------------------|


************************************

| h  Hammer-on
| p  Pull-off
| x  Dead note
| *  Natural harmonic
| b  Bend
| /  Slide up
| ~  Vibrato

************************************
Suggest correction
comments
print report bad tab
7 comments total. Showing first comments. show 1 bad comment
+1 reply
Bubbles516 140 Jun 25, 2008 11:39 AM

Really good tab. But its not perfect.
Keep it up.

+1 reply
welby 253 Jun 25, 2008 01:31 PM

great job
on the tab man
almost perfect.

guest
You may want to rate the tab now too:
select rating
Wanna post a correction for this tab? Suggest correction