Oops, an error
Loading. Please wait.

Welcome Home Bass Tab

version 2
75,732 views 78 this week
31 commentsread comments
1 2 3 4 5
accurate
x 33
add to favorites
launch autoscroll
font size
0
reset
guitar tuner
Autoscroll
slow
fast
+/-
esc
set tempo
stop
Help us to improve Ultimate-Guitar.com Take our survey!
×
Band: Coheed and Cambria
Song: Welcome Home
Album: Good Apollo I'm Burning Star IV, Vol 1:From Fear Through The Eyes OF Madness
Tuning: Eb,Ab,Db,Gb
Tabber: Brendan McLarty

* = stop note from ringing
~ = let note ring
/ = slide down

Intro Acoustic

Intro pt.1 x2
Gb|------------------|---------------------------------------------|
Db|------------------|                                             |
Ab|-----------5-7-9-5|                                             |
Eb|0~~~~~~0*---------|                                             |
                                                                   |x2
Intro pt.2 x2                                                      |
Gb|------------------------------------------------------|         |
Db|------------------------------------------------------|         |
Ab|777--7-9--777--7-9--7-9-10-12-10-9-7--7-9-10-12-10-9-7|         |
Eb|------------------------------------------------------|---------|

Verse x4
Gb|---------------------------------------------------------------|
Db|---------------------------------------------------------------|
Ab|----------------333-333-333-333-555-555-555-555-777-777-777775~|
Eb|000-000-000-000------------------------------------------------|

Chorus x2
Gb|---------------------------------------------3p0|(make up your own fill)
Db|------------------------------------------3p0---|
Ab|888-12/888-12/888-12-8888810~~0~~~~~~~3~~~------|
Eb|------------------------------------------------|

Verse x4
Gb|---------------------------------------------------------------|
Db|---------------------------------------------------------------|
Ab|----------------333-333-333-333-555-555-555-555-777-777-777775~|
Eb|000-000-000-000------------------------------------------------|

Chorus x2
Gb|---------------------------------------------3p0|(make up your own fill)
Db|------------------------------------------3p0---|
Ab|888-12/888-12/888-12-8888810~~0~~~~~~~3~~~------|
Eb|------------------------------------------------|

Bridge pt.1 x2
Gb|-----------------------------------------------------------------|
Db|-----------------------------------------------------------------|
Ab|----------------00*000*000*000*0---------------------------------|
Eb|11*111*111*111*1----------------33*333*333*333*311*111*111*111*0~|

Bridge pt.2 x2
Gb|---------------------------------------------------------------|
Db|---------------------------------------------------------------|
Ab|----------------00~000~000~000~0-------------------------------|
Eb|11~111~111~111~1----------------33~333~333~333~311~111~111~111~|

Solo x5
Gb|---------------------------------------------------------------|
Db|---------------------------------------------------------------|
Ab|----------------333-333-333-333-555-555-555-555-777-777-777775~|
Eb|000-000-000-000------------------------------------------------|

Outro x5
Gb|---------------------------------------------------------------|
Db|---------------------------------------------------------------|
Ab|----------------333-333-333-333-555-555-555-555-777-777-777775~|
Eb|000-000-000-000------------------------------------------------|

Fades Out To Violin Outro

Suggest correction
comments
print report bad tab
31 comments total. Showing first comments.
0 reply
ledzepprules09 10 wrote on May 3 2006, 04:59 pm

one thing, on the A in the intro part it's -5-9-7-5-.

other than that it looks great, thanks.

-1 reply
ledzepprules09 10 wrote on May 3 2006, 05:05 pm

Sorry, one more thing, on the second part of the intro it should be
Ab-777-9-7-777-9-7-

0 reply
Carlord 10 wrote on September 22 2006, 06:57 am

Pretty good tab, just remember that the bassist slaps during the Verse.

guest
You may want to rate the tab now too:
select rating
Wanna post a correction for this tab? Suggest correction