Oops, an error
Loading. Please wait.
We have Chord Pro version of Welcome Home.
It's the closest thing you can get to the original song and it has interactive parts. Check out the tab »
×
74,370 views 12 this week
7 commentsread comments
1 2 3 4 5
x 10
add to favorites
launch autoscroll
font size
0
reset
how to read this tab
guitar tuner
backing track
0:00
0:00
Autoscroll
slow
fast
+/-
esc
set tempo
stop
Tabbed by:coheedandnofx6
AIM:xautumnxromance

Tuning: Eb

                ::Intro::
   Guitar #1
eb|----------------------------------------|
Bb|----------------------------------------|
Gb|--------------7b------------------------|
Db|---------9-10---10-9-7b-7-10-9-7--------|
Ab|-------7-------------------------10-9---|
Eb|---0-0----------------------------------|
PM    . . .                   . . .  . .
  
eb|----------------------------------------|
Bb|----------------------------------------|
Gb|--------------7b------------------------|[2x]
Db|---------9-10---10-9-----7--5-----------|
Ab|-------7--------------9--9--7---9-------|
Eb|---0-0---------------10--------10-------|
PM    . . .              .  .  .   .
   

             ::Intro-Phase2::
   Guitar #1
eb|----------------------------------|
Bb|----------------------------------|
Gb|--------7*------------------------|
Db|---9-10---10-9-7*-7-10-9-7--------|
Ab|---------------------------10-9---|
Eb|----------------------------------|
PM                   
        
eb|---------------------------------|
Bb|---------------------------------|
Gb|-------7*------------------------|
Db|--9-10---10-9-----7--5-----------|
Ab|---------------9--9--7---9-------|
Eb|--------------10--------10-------|
PM                .  .  .   .
   Guitar #2
eb|---------------------------|
Bb|---------------------------|
Gb|---------------------------|
Db|---2---2-------7--5--------|
Ab|---2---2----9--9--7---9----|
Eb|---0---0---10--------10----|
               .  .  .   .

eb|-----------------------------------------------------------|
Bb|-----------------------------------------------------------|
Gb|-----------------------------------------------------------|
Db|---2------------------------------------2-------7--5-------|
Ab|---2---5h7p5h7p5h7p5h7p5h7p5h7p5h7p5hp--2----9--9--7---9---|
Eb|---0------------------------------------0---10--------10---|
                                                .  .  .   .

                         ::Intro-Phase3::
   Both Guitars
eb|-------------------------------------------------------------------|
Bb|-------------------------------------------------------------------|
Gb|-------------------------------------------------------------8*----|
Db|------------------------------------7-----------------7------------|
Ab|-------9-10-9*------9-10-9*--7-9-10---10-9-7*--7-9-10---10-9-------|
Eb|---0-0----------0-0------------------------------------------------|
PM    . .          . .          . .  . .  . .     . .  . .  . .

                     ::Verse::
   Guitar #1
eb|----------------------------------------------------------------------|
Bb|----------------------------------------------------------------------|
Gb|--9-9-9--9-9-9--9-9-9--9-9-9---9--9--9---9--9--9---9--9--9---9--9--9--|
Db|--9-9-9--9-9-9--9-9-9--9-9-9---10-10-10--10-10-10--10-10-10--10-10-10-|
Ab|--7-7-7--7-7-7--7-7-7--7-7-7---7--7--7---7--7--7---7--7--7---7--7--7--|
Eb|----------------------------------------------------------------------|

eb|----------------------------------------------------------------------|
Bb|-------------------------------------------------------------------5--|
Gb|---11-11-11--11-11-11--11-11-11--11-11-11--9-9-9--9-9-9--9-9-9-9-9-7--|
Db|---12-12-12--12-12-12--12-12-12--12-12-12--9-9-9--9-9-9--9-9-9-9-9-7--|
Ab|---9--9--9---9--9--9---9--9--9---9--9--9---7-7-7--7-7-7--7-7-7-7-7-5--|
Eb|----------------------------------------------------------------------|

   Guitar #2
eb|-------------------------------------------------------------------|
Bb|-------------------------------------------------------------------|
Gb|---9--9--11--9--7--9--11--5--5--11--9--7--9--11--9--11--16--14-----|
Db|---x--x--x---x--x--x--x---x--x--x---x--x--x--x---x--x---x---x------|
Ab|---7--7--9---7--5--7--9---3--3--9---7--5--7--9---7--9---14--12-----|
Eb|-------------------------------------------------------------------|

eb|--------------------------------------|
Bb|--------------------------------------|
Gb|---12--11--9--9--9--11--9--7--9--11---|
Db|---x---x---x--x--x--x---x--x--x--x----|
Ab|---10--9---7--7--7--9---7--5--7--9----|
Eb|--------------------------------------|

   Both Guitars
eb|----------5b*-------5b*-------5b*---------------|
Bb|------------------------------------------------|
Gb|------------------------------------------------|
Db|------------------------------------------------|
Ab|---3-3-3------3-3-3-----3-3-3-----3-3-3-3-5-5---|
Eb|---1-1-1------1-1-1-----1-1-1-----1-1-1-1-3-3---|
PM    . . .      . . .     . . .     . . . 

     Here laid to rest is our love everlong...
eb|---5-----------------------------------------------|
Bb|---5------------------------5----------------------|
Gb|---5------------------------5----------------------|
Db|---7------------------------5----------------------|
Ab|---7------------------------3----------------------|
Eb|---5-----------------------------------------------|

   With truth on the shores of confession...
eb|------------------------------------------------|
Bb|----------6b*-------6b*-------6b*---------------|
Gb|------------------------------------------------|
Db|------------------------------------------------|
Ab|---3-3-3------3-3-3-----3-3-3-----3-3-3-3-5-5---|
Eb|---1-1-1------1-1-1-----1-1-1-----1-1-1-1-3-3---|
PM    . . .      . . .     . . .     . . . 

   One last wish for you...
eb|-----------------------------------------------------------|
Bb|-----------------------------------------------------------|
Gb|-----------------------------------------------------------|
Db|-----------------------------------------------------------|
Ab|---3-3--3-3-3--3-3-3--3-3-3--3-7-7--7-7-7--7-7-7--7-7-7----|
Eb|---1-1--1-1-1--1-1-1--1-1-1--1-5-5--5-5-5--5-5-5--5-5-5----|
PM    . .  . . .  . . .  . . .  . . .  . . .  . . .  . . .

eb|-----------------------------------------------------------|
Bb|-----------------------------------------------------------|
Gb|-----------------------------------------------------------|
Db|-----------------------------------------------------------|
Ab|--7-5-5--5-5-5--5-5-5--5-5-5--5-3-3--3-3-3--3-3-3--3-3-3---|
Eb|--5-3-3--3-3-3--3-3-3--3-3-3--3-1-1--1-1-1--1-1-1--1-1-1---|
PM   . . .  . . .  . . .  . . .  . . .  . . .  . . .  . . .

Solo rhythym is the same as verse. Still working on the solo ;D
Suggest correction
comments
print report bad tab
7 comments total. Showing first comments.
-2 reply
elementos 305 Sep 26, 2005 10:15 AM

jesus christ

+1 reply
PhantomWuss95 31 Mar 02, 2006 03:32 PM

it alright at best

0 reply
PhantomWuss95 31 Mar 02, 2006 03:32 PM

i cant type

guest
You may want to rate the tab now too:
select rating
Wanna post a correction for this tab? Suggest correction