Oops, an error
Loading. Please wait.

Welcome Home Bass Tab

version 4
2,097 views 1 this week
3 commentsread comments
1 2 3 4 5
2 more votes to show rating
add to favorites
launch autoscroll
font size
0
reset
guitar tuner
Autoscroll
slow
fast
+/-
esc
set tempo
stop
Help us to improve Ultimate-Guitar.com Take our survey!
×
Author
-----------------------------------------------------------------------------
WELCOME HOME – Coheed and Cambria
-----------------------------------------------------------------------------

Tabbed By: Carl Gabriel C. Culvera
e-mail: wizard_effect@yahoo.com

Tuning: Standard

Intro:

G|------------------------------------|
D|------------------------------------|
A|-------------4-8-6-4--------4-8-6-4-|
E|-14\2-2~--3----------6~--6----------|

G|---------------------------------------------| Repeat this tab twice then…
D|---------------------------------------------|
A|---------------------------------------------|
E|-0-0-2-3-2-0-0-2-3-2-0-0-2-4-3-2-0-0-2-4-3-2-|

G|--------------------------------------------------------------------------|
D|--------------------------------------------------------------------------|
A|----------4-8-6-4--------4-8-6-4------------------------------------------|
E|-2~--14\2---------6~--6----------0-0-2-3-2-0-0-2-3-2-0-0-2-4-3-2-0-0-2-4--|

G|-------------------------------------------------|
D|-------------------------------------------------|
A|-------------------------------------------------|
E|-3-2-0-0-2-3-2-0-0-2-3-2-0-0-2-4-3-2-0-0-2-4-3-2-|

“You could have been all I wanted… but you were not honest… now get on the ground…”

G|--------------------------------------------------------------------------|
D|--------------------------------------------------------------------------|
A|-----------------------------7/9-9-9--9-9-9--9-9-9--11-11-11--11-11-11----|
E|-6-6-6--6-6-6--6-6-6--6-6-6-----------------------------------------------|

G|---------------------------------------------| Repeat this tab twice then…
D|---------------------------------------------|
A|-11-11-11--11-11-11--7-7-7--7-7-7--8-8-8-8-6-|
E|---------------------------------------------|

“Well if you’re just as I presumed…”

G|--------------------------------------------------------------------------|
D|-----------------------------------------------------------------------10-|
A|-6-6-6--6-6-6--6-6-6--6-6-6--8-8-8--8-8-8--8-8-8--8-8-8--9-9-9--9-9-9-----|
E|--------------------------------------------------------------------------|

G|--------------------------------------------------------------------------|
D|-8-7----7h8p7-------------------------------------------------------------|
A|-----10--------6-6-6--6-6-6—-5/7-9-8--6-6-6--6-6-6--6-6-6--6-6-6--9-9-9---|
E|--------------------------------------------------------------------------|

G|--------------------------------------------------------------------------|
D|--------------------------------------------------------------------------|
A|-9-9-9--9-9-9--9-9-9--10-10-10--10-10-10--10-10-10--10-10-10--6-6-6--6-6--|
E|--------------------------------------------------------------------------|

G|--------------------------------------------------------------------------|
D|----------------------7b---------7b---------7b----------------------------|
A|-6--6-6-6-6-4------------------------------------------------------3~--3h5|
E|---------------2-2-2------2-2-2------2-2-2------2-2-2-3-2-2-2--4~---------|

G|----------------------------------------------------------------0---------|
D|-----3---------7b---------7b---------7b-----------------------0-----------|
A|-3h5--------------------------------------------------------3-------------|
E|--------2-2-2------2-2-2------2-2-2------2-2-2-3-2-2-2—-4~----------14\4--|

“You stormed off to scar the armada…”

G|--------------------------------------------------------------------------|
D|--------------------------------------------------------------------------|
A|--------------------------------------------------------------------------|
E|-4-4-4--4-4-4--4-4-4--4-4-4--7-7-7--7-7-7--7-7-7--7-7-7--8-8-8--8-8-8--8--|

G|-------------------------------------| Repeat this tab twice then…
D|-------------------------------------|
A|---------------------------6-6-6-6-4-|
E|-8-8--8-8-8--4-4-4--4-4-4------------|

G|--------------------------------------------------------------------------|
D|--------------------------------------------------------------------------|
A|--------------------------------------------------------------------------|
E|-4-4-4--4-4-4--4-4-4--4-4-4--7-7-7--7-7-7--7-7-7--7-7-7--8-8-8--8-8-8--8--|

G|--------------------------------------------------------------------------|
D|--------------------------------------------------------------------------|
A|--------------------4-5-4---7\6-------------------------------------------|
E|-8-8--4-4-4--4-4-4--------6------4-4-4--4-4-4--4-4-4--4-4-4--7-7-7--7-7-7-|

G|--------------------------------------------------------------------------|
D|-------------------------------------------------------------7b-----------|
A|-------------------------------------------6-6-6-6-4----------------------|
E|-7-7-7--7-7-7--8-8-8--8-8-8--4-4-4--4-4-4-------------2-2-2------2-2-2----|

G|--------------------------------------------------------------------------|
D|-7b---------7b-----------------------------3---------7b---------7b--------|
A|-----------------------------------3~--3h5--------------------------------|
E|-----2-2-2------2-2-2-3-2-2-2—-4~-------------2-2-2------2-2-2------2-2-2-|

G|--------------------------------------------|
D|-7b-------------------------------3h5-3-4-0-|
A|------------------------3~--0-3h5-----------|
E|-----2-2-2-3-2-2-2—-4~----------------------|

“One last kiss for you…”

G|--------------------------------------------------------------------------|
D|--------------------------------------------------------------------------|
A|----------------------------------------------------------3-3--3-3-3--3-3-|
E|-5-5--5-5-5--5-5-5--5-5-5-5--7-7--7-7-7--7-7-7--7-6-6-4-3-----------------|

G|--------------------------------------------------------------------------|
D|--------------------------------------------------------------------------|
A|-3--3-3-3-3--1-1--1-1-1--1-1-1--1-1-1-1-----------------------------------|
E|-----------------------------------------5-5--5-5-5--5-5-5--5-5-5-5--7-7--|

G|--------------------------------------------------------------------------|
D|--------------------------------------------------------------------------|
A|--------------------------------------------------------------------------|
E|-7-7-7--7-7-7--7-7-7-7--6-6--6-6-6--6-6-6--6-6-6-6--7-7--7-7-7--7-7-7--7--|

G|-------|
D|-------|
A|-------|
E|-7-7-7-|

Solo:

G|--------------------------------------------------------------------------|
D|--------------------------------------------------------------------------|
A|--------------------------------------------------------------------------|
E|-5-5-5--5-5-5--5-5-5--5-5-5--7-7-7--7-7-7--7-7-7--7-7-7--8-8-8--8-8-8--8--|

G|---------------------------------------------------| Repeat this tab eleven
D|---------------------------------------------------| times…
A|-----------------------------------------5-5-5-5-3-|
E|-8-8--8-8-8--5-5-5--5-5-5--5-5-5--5-5-5------------|
Suggest correction
Give kudos to tab author, rate the tab!
1 2 3 4 5
comments
print report bad tab
3 comments total.
0 reply
texasbrosleader 10 Jun 03, 2009 09:01 PM

at the verse play it like this


5x
G|----------------------------------------------------------------|
D|----------------------------------------------------------------|
A|222-222-222-222-222-222-222-222-222-222-222-222-222-222-222220--|
E|----------------------------------------------------------------|

0 reply
texasbrosleader 10 Jun 03, 2009 09:02 PM

at the verse play it like this


5x
G|----------------------------------------------------------------|
D|----------------------------------------------------------------|
A|222-222-222-222-222-222-222-222-222-222-222-222-222-222-222220--|
E|----------------------------------------------------------------|

0 reply
texasbrosleader 10 Jun 04, 2009 11:38 AM

play the intro like this


G|------------------------------------------------------------------|
D|------------------------------------------------------------------|
A|----------------------------------------------------5--9--7--5----|
E|0~~~~~~~~~~~~~~~~~~~~~~~~~~~~~0*

guest
You may want to rate the tab now too:
select rating
Wanna post a correction for this tab? Suggest correction