Oops, an error
Loading. Please wait.

Welcome Home Bass Tab

version 5
6,011 views 3 this week
no commentswrite comment
1 2 3 4 5
accurate
x 6
add to favorites
launch autoscroll
font size
0
reset
guitar tuner
Autoscroll
slow
fast
+/-
esc
set tempo
stop
Help us to improve Ultimate-Guitar.com Take our survey!
×
Author
                  NOTES
~ =let ring out
h =hammer on
p =pull off
/ =slide
(#)= any number above 9... play normally

I have worked on this for about 3 days straight... it is 98% perfect.
please rate highly. :)




Gb)----------------------------------------------------------------|
Db)----------------------------------------------------------------|
Ab)----------------------------------------------------------------|
Eb)-0~~~~~~~~~~0------8-(12)(10)-8-0~~~~~~~~~0------8-(12)(10)-8---|

Gb)----------------------------------------------------------------|
Db)----------------------------------------------------------------|
Ab)--------------------------------------------0-------------0-----|
Eb)-0-0--0--3--2--------0-0--0--3--2--------023-320-------023-320--|

Gb)----------------------------------------------------------------|
Db)----------------------------------------------------------------|
Ab)--------------------------------------------0-------------0-----|
Eb)-0-0--0--3--2--------0-0--0--3--2--------023-320-------023-320--|

Gb)----------------------------------------------------------------|
Db)----------------------------------------------------------------|
Ab)-222-222-222-222-333-333-333-333-555-555-555-555-777-777-777775-|
Eb)----------------------------------------------------------------|

Gb)----------------------------------------------------------------|
Db)----------------------------------------------------------------|
Ab)-222-222-222-222-333-333-333-333-555-555-555-555-777-777-777775-|
Eb)----------------------------------------------------------------|

Gb)----------------------------------------------------------------|
Db)----------------------------------------------------------------|
Ab)-222-222-222-222-333-333-333-333-555-555-555-555-777-777-777775-|
Eb)----------------------------------------------------------------|

Gb)----------------------------------------------------------------|
Db)----------------------------------------------------------------|
Ab)-222-222-222-222-333-333-333-333-555-555-555-555-777-777-777775-|
Eb)----------------------------------------------------------------|

Gb)----------------------------------------------------------------|
Db)----------------------------------------------------------------|
Ab)----------------------------------------------------------------|
Eb)-000-5v--000-6v--000-5v--000---00005~~~~~~~~~~~-8~~~~~~~~~~~~~~-|

Gb)----------------------------------------------------------------|
Db)----------------------------------------------------------------|
Ab)----------------------------------------------------------------|
Eb)-000-5v--000-6v--000-5v--000---00005~~~~~~~~~~~-8~~~~~~~~~~~~~~-|

Gb)----------------------------------------------------------------|
Db)----------------------------------------------------------------|
Ab)-222-222-222-222-333-333-333-333-555-555-555-555-777-777-777775-|
Eb)----------------------------------------------------------------|

Gb)----------------------------------------------------------------|
Db)----------------------------------------------------------------|
Ab)-222-222-222-222-333-333-333-333-555-555-555-555-777-777-777775-|
Eb)----------------------------------------------------------------|

Gb)----------------------------------------------------------------|
Db)----------------------------------------------------------------|
Ab)----------------------------------------------------------------|
Eb)-000-5v--000-6v--000-5v--000-00005~~~~~~~~~~~~-8~~~~~~~~~~~~~~~-|

Gb)----------------------------------------------------------------|
Db)----------------------------------------------------------------|
Ab)----------------------------------------------------------------|
Eb)-000-9v--000-(10)v--000-(12)v--000-00005~~~~~~~~~-8~~~~~~~~~~~~-|

Gb)----------------------------------------------------------------|
Db)----------------------------------------------------------------|
Ab)----------------------------------------------------------------|
Eb)-000000000000000555555555555555333333333333333111111111111111---|

Gb)----------------------------------------------------------------|
Db)----------------------------------------------------------------|
Ab)----------------------------------------------------------------|
Eb)-000000000000000555555555555555333333333333333111111111111111---|

Gb)----------------------------------------------------------------|
Db)----------------------------------------------------------------|
Ab)-222-222-222-222-333-333-333-333-555-555-555-555-777-777-777775-|
Eb)----------------------------------------------------------------|

Gb)----------------------------------------------------------------|
Db)----------------------------------------------------------------|
Ab)-222-222-222-222-333-333-333-333-555-555-555-555-777-777-777775-|
Eb)----------------------------------------------------------------|

Gb)----------------------------------------------------------------|
Db)----------------------------------------------------------------|
Ab)-222-222-222-222-333-333-333-333-555-555-555-555-777-777-777775-|
Eb)----------------------------------------------------------------|

Gb)----------------------------------------------------------------|
Db)-2~~~~~~9~~~~~~7~~~~~~5~~~~~~2~~~~~~(10)~~~~~~9~~~~~~7~~~~~~----|
Ab)----------------------------------------------------------------|
Eb)----------------------------------------------------------------|

Gb)----------------------------------------------------------------|
Db)-2~~~~~~~7~~~~~~~5~~~~~~~4~~~~~~~2~~~~~~~~~~~2~~~2-2-2-0~~~~~~--|
Ab)----------------------------------------------------------------|
Eb)----------------------------------------------------------------|

Gb)----------------------------------------------------------------|
Db)-2~~~~~~9~~~~~~7~~~~~~5~~~~~~2~~~~~~(10)~~~~~~9~~~~~~7~~~~~~----|
Ab)----------------------------------------------------------------|
Eb)----------------------------------------------------------------|

Gb)----------------------------------------------------------------|
Db)-2~~~~~~~7~~~~~~~5~~~~~~~4~~~~~~~2~~~~~~~~~~~2~~~2-2-2-0~~~~~~--|
Ab)----------------------------------------------------------------|
Eb)----------------------------------------------------------------|

Gb)----------------------------------------------------------------|
Db)-2~~~~~~9~~~~~~7~~~~~~5~~~~~~2~~~~~~(10)~~~~~~9~~~~~~7~~~~~~----|
Ab)----------------------------------------------------------------|
Eb)----------------------------------------------------------------|

Gb)----------------------------------------------------------------|
Db)-2~~~~~~7~~~~~~5~~~~~~4~~~~~~2~~~~~~~~~~2~~2-2-2-0~~~~~~~~~~~~~~|
Ab)----------------------------------------------------------------|
Eb)----------------------------------------------------------------|
Suggest correction
What's this?
You can suggest a correction to this tab. Community and Mods will review your correction and vote to approve or reject it.
comments
print report bad tab
guest
You may want to rate the tab now too:
select rating
Please do not post tabs as comments. Select "correction" instead!