Oops, an error
Loading. Please wait.

Welcome Home Tab

version 5
11,013 views 1 this week
4 commentsread comments
1 2 3 4 5
x 7
add to favorites
launch autoscroll
font size
0
reset
how to read this tab
guitar tuner
Autoscroll
slow
fast
+/-
esc
set tempo
stop
Help us to improve Ultimate-Guitar.com Take our survey!
×
Author
band: coheed and cambria
song: welcome home
tabbed by: george williams

tuning: guitar 1 (acoustic) EbBbGbDbAbEb
        guitar 2 (electric) EbBbGbDbAbEb with distortion

legend:

| b     bend
| r     return
| /     slide up
| \     slide down
| h     hammer on
| p     pull off
| *     pinch harmonic
| ~     tremolo
| ...   palm muted
| x     muted note

intro:
(guitar 1)

E|-----------------------------------------|
B|-----------------------------------------|
G|-----------------------------------------|
D|------------9--10--9-7--7--10-9--7-------|
A|---------7-------------------------10-9--|
E|--0--0-0---------------------------------|

E|----------------------------------|
B|----------------------------------|
G|----------------------------------|
D|-----------9---10-9---------------|
A|---------7-----------9---9---7--5-|
E|--0--0-0--------------------------|

E|-----------------------------------------|
B|-----------------------------------------|
G|-----------------------------------------|
D|------------9--10--9-7--7--10-9--7-------|
A|---------7-------------------------10-9--|
E|--0--0-0---------------------------------|

                               drums kick in here.
E|----------------------------------|
B|----------------------------------|
G|----------------------------------|
D|-----------9---10-9---------------|
A|---------7-----------9---9---7--5-|
E|--0--0-0--------------------------|

intro part 2:
(guitar 2)

E|------------------------------------|------------------------------|
B|------------------------------------|------------------------------|
G|--------7*--------------------------|--------7*--------------------|
D|--9--10----10-9--7-7--10-9--7-------|--9--10----10-9---------------|
A|------------------------------10-9--|-----------------9---9---7--5-|
E|------------------------------------|------------------------------|

E|------------------------------------|--------------------------------|
B|------------------------------------|--------------------------------|
G|--------7*--------------------------|--------7-----------------------|
D|--9--10----10-9--7-7--10-9--7-------|--9--10----10-9-----------------|
A|------------------------------10-9--|-----------------9--(9)-(7)-(5)-|
E|------------------------------------|--------------------------------|

intro part 3:
(guitar 2)

E|-----------------------------------------------------|
B|-----------------------------------------------------|
G|-----------------------------------------------------|
D|-----------------------------------------------------|
A|--2-2-4-5-4--2-2-4-5-4--2-4-5-7-5-4-2--2-4-5-7-5-4-2-|
E|--0-0-2-3-2--0-0-2-3-2--0-2-3-5-3-2-0--0-2-3-5-3-2-0-|
    .........  .........  .............  .............


E|-----------------------------------------------------|
B|-----------------------------------------------------|
G|-----------------------------------------------------|
D|-----------------------------------------------------|
A|--2-2-4-5-4--2-2-4-5-4--2-4-5-7-5-4-2--2-4-5-7-5-4-2-|
E|--0-0-2-3-2--0-0-2-3-2--0-2-3-5-3-2-0--0-2-3-5-3-2-0-|
    .........  .........  .............  .............

intro part 4:
(guitar 2)

E|------------------------------------|------------------------------|
B|------------------------------------|------------------------------|
G|--------7*--------------------------|--------7*--------------------|
D|--9--10----10-9--7-7--10-9--7-------|--9--10----10-9---------------|
A|------------------------------10-9--|-----------------9---9---7--5-|
E|------------------------------------|------------------------------|

E|------------------------------------|-------------------|
B|------------------------------------|-------------------|
G|--------7*--------------------------|--------7----------|
D|--9--10----10-9--7-7--10-9--7-------|--9--10----10-9-9*-|
A|------------------------------10-9--|-------------------|
E|------------------------------------|-------------------|

intro part 5:
(guitar 2)

E|-----------------------------------------------------|
B|-----------------------------------------------------|
G|-----------------------------------------------------|
D|-----------------------------------------------------|
A|--2-2-4-5-4--2-2-4-5-4--2-4-5-7-5-4-2--2-4-5-7-5-4-2-|
E|--0-0-2-3-2--0-0-2-3-2--0-2-3-5-3-2-0--0-2-3-5-3-2-0-|
    .........  .........  .............  .............


E|-----------------------------------------------------|
B|-----------------------------------------------------|
G|-----------------------------------------------------|
D|-----------------------------------------------------|
A|--2-2-4-5-4--2-2-4-5-4--2-4-5-7-5-4-2--2-4-5-7-5-4-2-|
E|--0-0-2-3-2--0-0-2-3-2--0-2-3-5-3-2-0--0-2-3-5-3-2-0-|
    .........  .........  .............  .............

verse:
(guitar 2)

E|-----------------------------|----------------------------------------|
B|-----------------------------|----------------------------------------|
G|-----------------------------|----------------------------------------|
D|--9-9-9--9-9-9--9-9-9--9-9-9-|-10-10-10--10-10-10--10-10-10--10-10-10-|
A|--7-7-7--7-7-7--7-7-7--7-7-7-|--7--7--7---7--7--7---7--7--7---7--7--7-|
E|-----------------------------|----------------------------------------|

E|-----------------------------|
B|-----------------------------|
G|--7-7-7--7-7-7--7-7-7--7-7-7-|
D|--x-x-x--x-x-x--x-x-x--x-x-x-|
A|--7-7-7--7-7-7--7-7-7--7-7-7-|
E|-----------------------------|

E|----------------------------------------|
B|----------------------------------------|
G|----------------------------------------|
D|-10-10-10--10-10-10--10-10-10-10-10-12--|
A|--7--7--7---7--7--7---7--7--7--7--7--9--|
E|----------------------------------------|

>PLAY THE VERSE TWICE<
>THEN PLAY THE VERSE WITH THIS BACKING<

E|---------------------------|---------------------------|
B|---------------------------|---------------------------|
G|---------------------------|---------------------------|
D|---------------------------|--------9---10---9---7-----|
A|---7-7-9-7-10-7-9----------|---7-7----7----7--------10-|
E|------------------10---9---|---------------------------|

>PLAY THE VERSE AND BACKING TWICE<

bridge:
(guitar 2)

                                                (Am)  (C)
E|---------5*~--------6*~--------5*~--------------0----0-|
B|------------------------------------------------1----1-|
G|------------------------------------------------2----0-|
D|---3-3-3-----3-3-3-----3-3-3-----3-3-3-3-3-3-5--2----2-|
A|---3-3-3-----3-3-3-----3-3-3-----3-3-3-3-3-3-5--0----3-|
E|---1-1-1-----1-1-1-----1-1-1-----1-1-1-1-1-1-3---------|

>PLAY TWICE<

>THEN PLAY VERSE TWICE<
>THEN PLAY VERSE WITH BACKING TWICE<
>THEN PLAY BRIDGE TWICE<

2nd bridge:
(guitar 2) 
this is the part where claudio sings "one more kiss for you..."

E|-----------------------------|----------------------------|
B|-----------------------------|----------------------------|
G|-----------------------------|----------------------------|
D|-----------------------------|-2-2-2--2-2-2--2-2-2--2-2-2-|
A|--3-3-3--3-3-3--3-3-3--3-3-3-|-0-0-0--0-0-0--0-0-0--0-0-0-|
E|--1-1-1--1-1-1--1-1-1--1-1-1-|----------------------------|
    . . .  . . .  . . .  . . .   . . .  . . .  . . .  . . . 

E|----------------------------|----------------------------|
B|----------------------------|----------------------------|
G|----------------------------|----------------------------|
D|----------------------------|----------------------------|
A|-5-5-5--5-5-5--5-5-5--5-5-5-|-3-3-3--3-3-3--3-3-3--3-3-3-|
E|-3-3-3--3-3-3--3-3-3--3-3-3-|-1-1-1--1-1-1--1-1-1--1-1-1-|
   . . .  . . .  . . .  . . .   . . .  . . .  . . .  . . . 
 
solo:
(guitar 2)
(i made a big tuning mistake...u need to play each note 1 fret lower...sorry...i just realised now...)

E|------------------------------------------------------------|
B|--------------------------------------------------------16b-|
G|--17p15p13-17p15p13-17p15p13-17p15p13-17p15p13-17p15p13-----|
D|------------------------------------------------------------|
A|------------------------------------------------------------|
E|------------------------------------------------------------|

E|--19b-18-16-15b-13-13-|-------------18-18----16-16----15-15----|
B|----------------------|-------16-18-------18-------17-------16-|
G|----------------------|-15-17----------------------------------|
D|----------------------|----------------------------------------|
A|----------------------|----------------------------------------|
E|----------------------|----------------------------------------|

E|-13-13----9p8h9p8----8---------------------|
B|-------14---------11---9-11-12-13-13-------|
G|-------------------------------------10~~~-|
D|-------------------------------------------|
A|-------------------------------------------|
E|-------------------------------------------|

E|----------------------------16b~-----------------------|
B|----18-17b-----------15h18---------------------13-9----|
G|-17---------17-15-17--------------12*--8h10h12------10-|
D|-------------------------------------------------------|
A|-------------------------------------------------------|
E|-------------------------------------------------------|

E|--------------------------------------|
B|-11-8---------------------------------|
G|------8-8\----------------------------|
D|------------1-3-6-5p3p1---------------|
A|-------------------------3-5-6--5p1h3-|
E|--------------------------------------|

E|----------13h15h16p15p13---------------------------------------|
B|-13h14h16----------------15-13-12-13-12h13p12--10br----10br----|
G|----------------------------------------------------10------10-|
D|---------------------------------------------------------------|
A|---------------------------------------------------------------|
E|---------------------------------------------------------------|

E|-20b--18-16-18p13-13-13-------------------|
B|------------------------18p13-13-13-13p11-|
G|------------------------------------------|
D|------------------------------------------|
A|------------------------------------------|
E|------------------------------------------|

E|------------------------------------------------------------|
B|------------------------------------------------------------|
G|--------------------------------------3-5-6-8-10-10*--8p6h8-|
D|-1h3-3/5--5/6--6/7--7/8--8/10---1-3-6-----------------------|
A|------------------------------------------------------------|
E|------------------------------------------------------------|

E|-------------------------------------------8p4---6------8b-11-----|
B|-----5h6p5p2-----------------------------------6---9-11-------11b-|
G|-5-6---------5p3p1h3-3b-1---1h3p1--------3------------------------|
D|--------------------------3--------1-3-6--------------------------|
A|------------------------------------------------------------------|
E|------------------------------------------------------------------|

E|--------------------|
B|-9-8-9--8-8p4h6h8p5-|
G|--------------------|
D|--------------------|
A|--------------------|
E|--------------------|

E|---------------------------------------------|
B|---8p6p1-9p6p1-13p9p1-14p9p1-13p9p1-9p6p1-8b-|
G|-5-------------------------------------------|
D|---------------------------------------------|
A|---------------------------------------------|
E|---------------------------------------------|

E|---------------------------------------------|
B|---8p6p1-9p6p1-13p9p1-14p9p1-13p9p1-9p6p1-8b-|
G|-6-------------------------------------------|
D|---------------------------------------------|
A|---------------------------------------------|
E|---------------------------------------------|

E|--------------------------------------------------|
B|---8p6p1-9p6p1-13p9p1-14p9p1-16p13p1-14p9p1-13----|
G|-8---------------------------------------------\5-|
D|--------------------------------------------------|
A|--------------------------------------------------|
E|--------------------------------------------------|

E|-------4-------4-------4-|
B|-6p4p1---6p4p1---6p4p1---|
G|-------------------------|
D|-------------------------|
A|-------------------------|
E|-------------------------|

outro:
(guitar 2)
>PLAY VERSE AS BACKING<

E|---------------------------------------------------------------|
B|-------------------------------7-7*b~--------------------------|
G|---4-2-0---5-4-2---2-0-----4-7----------4-2-0--5-4-2---2-0-----|
D|-2---------------0-----4-2------------2--------------0-----4-2-|
A|---------3-----------------------------------------------------|
E|---------------------------------------------------------------|

>SONG SLOWLY FADES OUT AND TURNS INTO PART 2<

outro part 2
(guitar 2)

E|-------------------------------------|
B|-------------------------------------|
G|-------------------------------------|
D|--------9--------9-------10-------10-|
A|-7-7-7----7-7-7----7-7-7----7-7-7----|
E|-------------------------------------|

E|----------------------------------------|
B|----------------------------------------|
G|-------------------------9--------9-7---|
D|-------12-------12-----9--------9-------|
A|-9-9-9----9-9-9----7-7------7-7---------|
E|----------------------------------------|

thanks for looking. all comments/hate mail are welcome!
Suggest correction
comments
print report bad tab
4 comments total. Showing first comments.
-1 reply
Alex Barrera 31 Nov 17, 2006 09:54 PM

wow.

this is so inaccurate...

compared to the other tabs on this site, this is pure crap.

+1 reply
georgeow 742 Nov 18, 2006 09:17 AM

try tuning your guitar to standard instead of D#. it is right as claudio taught it to me after one of the shows.

0 reply
wewillrockyou1 10 Nov 21, 2006 04:14 PM

alex barrera what are you talking about? this tab is almost perfect! apart from one or two things i think its great

guest
You may want to rate the tab now too:
select rating
Wanna post a correction for this tab? Suggest correction