Oops, an error
Loading. Please wait.

Welcome Home Bass Tab

version 6
3,235 views 3 this week
1 commentread comment
1 2 3 4 5
please rate
add to favorites
launch autoscroll
font size
0
reset
guitar tuner
Tab Pro tools
  • play this tab
  • loop segment
  • change instrument
  • show fretboard
  • metronome
×
Best way to learn
"Welcome Home"
Autoscroll
slow
fast
+/-
esc
set tempo
stop
Contributor
Difficulty
Tuning
intermediate
D# G# C# F# A# D#
WELCOME HOME (Bassline)
                        As recorded by Coheed And Cambria
(From the 2005 Album GOOD APOLLO, I'M BURNING STAR IV - VOLUME 1: FROM FEAR THROUGH THE 
EYES OF MADNESS)

Words and Music by Coheed And Cambria
Transcribed by Paul A. Dechant

Gtr I (Eb Ab Db Gb) - 'Bass'

 Intro
  Moderately Q=79
 4/4
  Gtr I
  W          W          W          H.       E  S S
|----------|----------|----------|-----------------|
|----------|----------|----------|-----------------|
|----------|----------|----------|-----------------|
|----------|----------|----------|---------12\-0-0-|


  W          e Q.    e e  e  E    W          e Q.    e e  e  E
|----------|--------------------|----------|--------------------||
|----------|--------------------|----------|--------------------||
|----------|-----------9--------|----------|-----------9--------||
|-0--------|-0------10---12-10\-|-0--------|-0------10---12-10\-||


    S S S S e E S S S S e E   S S S S S S E S S S S S S E
||--------------------------|------------------------------||
||o-------------------------|-----------------------------o||
||o-------------------------|-----------------------------o||
||--0-0-0---0-0-0-0-0---0-0-|-0-0-0-0-0-0-0-0-0-0-0-0-0-0--||


        >
  e e e e e e e e    H      e e  S  S  E    W           Q   Q   e e  S  S  E
|-----------------|-----------------------|----------|-----------------------|
|-----------------|-----------------------|----------|-----------------------|
|-----------------|-----------9-----------|----------|------------9----------|
|-0-0-0-0-0-0-0-0-|-12\----10---12-12-10\-|-0--------|-12\-----10---12-12-10-|


    S S S S e E S S S S e E   S S S S S S E S S S S S S E
||--------------------------|------------------------------||
||o-------------------------|-----------------------------o||
||o-------------------------|-----------------------------o||
||--0-0-0---0-0-0-0-0---0-0-|-0-0-0-0-0-0-0-0-0-0-0-0-0-0--||


   Verses
    $
    S S S S S S S S S S S S S S S S   S S S S S S S S S S S S S S S S
||----------------------------------|----------------------------------|
||o---------------------------------|----------------------------------|
||o---------------------------------|----------------------------------|
||--0-0-0---0-0-0---0-0-0---0-0-0---|-0-0-0---0-0-0---0-0-0---0-0-0----|


                                                       To Coda
  S S S S S S S S S S S S S S S S   S S S S S S S S S S S S S  E.   4x
|---------------------------------|---------------------------------||
|---------------------------------|--------------------------------o||
|---------------------------------|--------------------------------o||
|-0-0-0---0-0-0---0-0-0---0-0-0---|-0-0-0---0-0-0---0-0-0-0-0-10----||


 1st Chorus
  S S S +S  Q   S S S +S  Q     S S S +S  Q   S S S S S S S S
|-----------------------------|--------------------------------|
|-----------------------------|--------------------------------|
|-----------------------------|--------------------------------|
|-1-1-1-(1)s8\--1-1-1-(1)s8\--|-1-1-1-(1)s8\--1-1-1-1-1-1-1-0--|


  H.      +E. S   H    +E  S S  Q
|---------------|-------------------|
|---------------|-------------------|
|-0-------(0)-3-|-3----(3)-3s5S10\--|
|---------------|-------------------|


  S S S S  Q   S S S S  Q     S S S S  Q   S S S S S S S S
|---------------------------|-------------------------------|
|---------------------------|-------------------------------|
|---------------------------|-------------------------------|
|-1-1-1---/8\--1-1-1---/8\--|-1-1-1---/8\--1-1-1-1-1-1-1-0--|


              D.S. al Coda
  W          H.        Q
|----------|---------------||
|----------|---------------||
|-0--------|-3-------/12\--||
|----------|---------------||


 2nd Chorus
  &
  S S S +S  Q   S S S S  Q     S S S +S  Q   S S S S S S S S
|----------------------------|--------------------------------|
|----------------------------|--------------------------------|
|----------------------------|--------------------------------|
|-1-1-1-(1)s8\--1-1-1---/8\--|-1-1-1-(1)s8\--1-1-1-1-1-1-1-0--|


  H.      +E. S   H    +E  S S  Q
|---------------|-------------------|
|---------------|-------------------|
|-0-------(0)-3-|-3----(3)-3s5S10\--|
|---------------|-------------------|


  S S S +S  Q   S S S +S  Q     S S S +S  Q   S S S S S S S S
|-----------------------------|--------------------------------|
|-----------------------------|--------------------------------|
|-----------------------------|--------------------------------|
|-1-1-1-(1)s8\--1-1-1-(1)s8\--|-1-1-1-(1)s8\--1-1-1-1-1-1-1-0--|


  H.      +E. S   Q  +S  S S S S S E. S E
|---------------|---------------------5----||
|---------------|--------------5s7s5----5\-||
|-0-------(0)-3-|-3--(3)-3-3-5-------------||
|---------------|--------------------------||


 Bridge
  S S S S S S S S S S S S S S S S   S S S S S S S S S S S S S S S S
|---------------------------------|---------------------------------|
|---------------------------------|---------------------------------|
|---------------------------------|---------------------------------|
|-1-1---1-1-1---1-1-1---1-1-1-3-1-|-5-5---5-5-5---5-5-5---5-7-5-3s5-|


  S S S S S S S S S S S S S S S S   S S S S S S S S S S S S S S S S
|---------------------------------|---------------------------------|
|---------------------------------|---------------------------------|
|-------------------------5-3-2-2-|---------------------------------|
|-3-3---3-3-3---3-3-3---3---------|-1-1---1-1-1---1-1-1---1-1-1-1-1-|


  S S S S S S S S S S S S S S S S   S S S S S S S S S S S S S S S S
|---------------------------------|---------------------------------|
|---------------------------------|---------------------------------|
|---------------------------------|-------------------------------7-|
|-1-1-1-1-1-1-1-1-1-1-1-1-1-1-1-0-|-5-5-5-5-5-5-5-5-5-5-5-5-5-5-5---|


  S S S S S S S S S S S S S S S S   S S S S S S S S S S S S S E.
|---------------------------------|-------------------------------||
|---------------------------------|-------------------------------||
|---------------------------------|-------------------------------||
|-3-3-3-3-3-3-3-3-3-3-3-3-3-3-3-0-|-1-1-1-1-1-1---1-1-1-1-1-1-----||


 Guitar Solos
  S S S S S S S S S S S S S S S S   S S S S S S S S S S S S S S S S
|---------------------------------|---------------------------------|
|---------------------------------|---------------------------------|
|---------------------------------|---------------------------------|
|-0-0-0---0-0-0---0-0-0---0-0-0---|-0-0-0---0-0-0---0-0-0---0-0-0---|


  S S S S S S S S S S S S S S S S   S S S S S S S S S S S S  S  E.
|---------------------------------|-------------------7-------------|
|---------------------------------|---------------------9-7---------|
|---------------------------------|-----------------7-------10------|
|-0-0-0---0-0-0---0-0-0---0-0-0---|-0-0-0---0-0-0--------------10---|


  S S S S S S S S S S S S S S S S   S S S S S S S S S S S S S S S S
|---------------------------------|---------------------------------|
|---------------------------------|---------------------------------|
|---------------------------------|---------------------------------|
|-0-0-0---0-0-0---0-0-0---0-0-0---|-0-0-0---0-0-0---0-0-0---0-0-0---|


                                                                ~~~
  S S S S S S S S S S S S S S S S   S S S S S S S S S S S  S S  E.
|---------------------------------|---------------------------------|
|---------------------------------|-------------------8-7-----------|
|---------------------------------|-----------------------10-9------|
|-0-0-0---0-0-0---0-0-0---0-0-0---|-0-0-0---0-0-0---0----------10---|


  S S S S S S S S S S S S S S S S   S S S S S S S S S S E S S S S
|---------------------------------|-------------------------------|
|---------------------------------|-------------------------------|
|---------------------------------|-------------------------------|
|-0-0-0---0-0-0---0-0-0---0-0-0---|-0-0-0---0-0-0---0-0-0-0h2s3-3-|


  S S S S S S S S S S S S S S S S   S S S S S S S S S S S  S S  E.
|---------------------------------|---------------------------------|
|---------5-5-4---------7-5-5---4-|-------------------9-7-----------|
|-5-5-5-5-------5-5-5-5-------5---|-5-7-7-7-5-7-7-7-------10-9------|
|---------------------------------|---0-0-0---0-0-0-0----------10---|


  S S S S S S S S S S S S S S S S   S S S S S S S S S S S S S S S S
|---------------------------------|---------------------------------|
|---------------------------------|---------------------------------|
|---------------------------------|---------------------------------|
|-0-0-0---0-0-0---0-0-0---0-0-0---|-0-0-0---0-0-0---0-0-0---0-0-0---|


  S S S S S S S S S S S S S S S S   S S S S S S S S S S S S S  S S S
|---------------------------------|----------------------------------|
|---------------------------------|-------------------8-7-7-7--------|
|---------------------------------|---------------------------10-9-9-|
|-0-0-0---0-0-0---0-0-0---0-0-0---|-0-0-0---0-0-0---0----------------|


  S S S S S S S S S S S S S S S S   S S S S S S S S S S S S S S S S
|---------------------------------|---------------------------------|
|---------------------------------|---------------------------------|
|---------------------------------|---------------------------------|
|-0-0-0---0-0-0---0-0-0---0-0-0-0-|-0-0-0---0-0-0---0-0-0---0-0-0-0-|


  S S S S S S S S S S S S S S S S   S S S S S S S S S S S S S  E.
|---------------------------------|--------------------------------||
|---------------------------------|--------------------------------||
|---------------------------------|--------------------------------||
|-0-0-0---0-0-0---0-0-0---0-0-0-0-|-0-0-0---0-0-0---0-0-0-0-0-10---||


 Outro
  S S S S S S S S S S S S S S S S   S S S S S S S S S S S S S S S S
|---------------------------------|---------------------------------|
|---------------------------------|---------------------------------|
|---------------------------------|---------------------------------|
|-0-0-0---0-0-0---0-0-0---0-0-0---|-0-0-0---0-0-0---0-0-0---0-0-0---|


  S S S S S S S S S S S S S S S S   S S S S S S S S S S S S  S  E.
|---------------------------------|-------------------7-------------|
|---------------------------------|---------------------9-7---------|
|---------------------------------|-------------------------10------|
|-0-0-0---0-0-0---0-0-0---0-0-0---|-0-0-0---0-0-0---0----------10---|


  S S S S S S S S S S S S S S S S   S S S S S S S S S S S S S S S S
|---------------------------------|---------------------------------|
|---------------------------------|---------------------------------|
|---------------------------------|---------------------------------|
|-0-0-0---0-0-0---0-0-0---0-0-0---|-0-0-0---0-0-0---0-0-0---0-0-0---|


  S S S S S S S S S S S S S S S S   S S S S S S S S S S S S S S S S
|---------------------------------|---------------------------------|
|---------------------------------|-------------------8-7-7-7-------|
|-3s5-----3s5-----3s5-----3s5-----|-5-7-7-7-5-7-7-7-7---------5-5-5-|
|-----0-0-----0-0-----0-0-----0-0-|---------------------------------|


  S S S S S S S S S S S S S S S S   S S S S S S S S S S E S S S S
|---------------------------------|-------------------------------|
|---------------------------------|-------------------------------|
|---------------------------------|-------------------------------|
|-0-0-0---0-0-0---0-0-0---0-0-0---|-0-0-0---0-0-0---0-0-0-0h2s3-3-|


  S S S S S S S S S S S S S S S S   S S S S S S S S S S S  S S  E.
|---------------------------------|---------------------------------|
|---------5-5-4---------7-5-5---4-|-------------------9-7-----------|
|-5-5-5-5-------5-5-5-5-------5---|-5-7-7-7-5-7-7-7-------10-9------|
|---------------------------------|---0-0-0---0-0-0-0----------10---|


  S S S S S S S S S S S S S S S S   S S S S S S S S S S S S S S S S
|---------------------------------|---------------------------------|
|---------------------------------|---------------------------------|
|---------------------------------|---------------------------------|
|-0-0-0---0-0-0---0-0-0---0-0-0---|-0-0-0---0-0-0---0-0-0---0-0-0---|


  S S S S S S S S S S S S S S S S   S S S S S S S S S S S S S  S S S
|---------------------------------|----------------------------------|
|---------------------------------|-------------------8-7-7-7--------|
|---------------------------------|---------------------------10-9-9-|
|-0-0-0---0-0-0---0-0-0---0-0-0---|-0-0-0---0-0-0---0----------------|


    S S S S S S S S S S S S S S S S   S S S S S S S S S S S S S S S S
||----------------------------------|----------------------------------|
||o---------------------------------|----------------------------------|
||o---------------------------------|----------------------------------|
||--0-0-0---0-0-0---0-0-0---0-0-0---|-0-0-0---0-0-0---0-0-0---0-0-0----|


  S S S S S S S S S S S S S S S S   S S S S S S S S S S S S  S  E.
|---------------------------------|-------------------7--------------||
|---------------------------------|---------------------9-7---------o||
|---------------------------------|-----------------7-------10------o||
|-0-0-0---0-0-0---0-0-0---0-0-0---|-0-0-0---0-0-0--------------10----||


Duration Legend
---------------
W - whole; H - half; Q - quarter; E - 8th; S - 16th; T - 32nd; X - 64th; a - acciaccatura
+ - note tied to previous; . - note dotted; .. - note double dotted
Uncapitalized letters represent notes that are staccato (1/2 duration)
Irregular groupings are notated above the duration line
Duration letters will always appear directly above the note/fret number it represents the
duration for.  Duration letters with no fret number below them represent rests.  Multi-
bar rests are notated in the form Wxn, where n is the number of bars to rest for.  Low
melody durations appear below the staff

Tablature Legend
----------------
 h   - hammer-on
 p   - pull-off
 b   - bend
 pb  - pre-bend
 r   - bend release (if no number after the r, then release immediately)
 /\  - slide into or out of (from/to "nowhere")
 s   - legato slide
 S   - shift slide
  - natural harmonic
[n]  - artificial harmonic
n(n) - tapped harmonic
 ~   - vibrato
 tr  - trill
 T   - tap
 TP  - trem. picking
 PM  - palm muting
\n/  - tremolo bar dip; n = amount to dip
 \n  - tremolo bar down
 n/  - tremolo bar up
/n\  - tremolo bar inverted dip
 =   - hold bend; also acts as connecting device for hammers/pulls
 <>  - volume swell (louder/softer)
 x   - on rhythm slash represents muted slash
 o   - on rhythm slash represents single note slash

Misc Legend
-----------
 |  - bar
||  - double bar
||o - repeat start
o|| - repeat end
*|  - double bar (ending)
 :  - bar (freetime)
 $  - Segno
 &  - Coda
Tempo markers -  = BPM(8/16=s8/s16), where s8 = swing 8ths, s16 = swing 16ths
comments
We did not receive enough feedback on this tab! Please rate:
print report bad tab
1 2 3 4 5
1 comment total.
0 reply
Zaqq wrote on February 14 2014, 12:28 pm

The verse riff ends with:

                                                       
S S S S S S S S S S S S S S S S S S S S S S S S S S S S S E. 4x
|---------------------------------|---------------------------7----||
|---------------------------------|---------------------------7---o||
|---------------------------------|---------------------------5---o||
|-0-0-0---0-0-0---0-0-0---0-0-0---|-0-0-0---0-0-0---0-0-0-0-0------||

I want to post or [tab]
guest
You may want to rate the tab now too:
select rating
Please do not post tabs as comments. Select "correction" instead!