Oops, an error
Loading. Please wait.

You Got Spirit Kid tab

version 1
version 1

Whole song

Video

8,082 views 42 this week
no commentswrite comment
1 2 3 4 5
x 13
add to favorites
×
Save as Personal and add changes to this tab that will be seen only by you. Learn more ›
×
You can save this tab as Personal to edit and correct it or add notes. All changes will be seen only by you. Learn more »
launch autoscroll
font size
0
reset
how to read this tab
guitar tuner
edit
Autoscroll
slow
fast
+/-
esc
set tempo
stop
Author
Difficulty
'You Got Spirit, Kid' by Coheed and Cambria
From 'The Color Before The Sun' 2015
Transcribed by Dan Cottrell

There are some lead parts I've not transcribed but this serves
as a decent basis to learn the structure and chording of the song.

Standard Tuning

[Intro]
GUITAR I
e|-----------------7---5---5---5-----------------|
B|-7---5---8---7-------------------8-7-5---5-7-8-|
G|---------------------------------------7-------|
D|---0---0---0---0---0---0---0---0---------------| X2
A|-----------------------------------------------|
E|-----------------------------------------------|

GUITAR II
e|-----------------------------------------------|
B|-----------------------------------------------|
G|-7---------------------------------------------|
D|-7---------------------------------------------| X2
A|-5---------------------------------------------|
E|-----------------------------------------------|
   LET RING

[Verse]
GUITAR II
e|-----------------------------------------------|
B|-----------------------------------------------|
G|-7-7-7-7-----4-2-2-2-2-4-----------4-2-2-2-2---|
D|-7-7-7-7-4-5-4-2-2-2-2-4-4-5-5-5-5-4-2-2-2-2---| x2
A|-5-5-5-5-4-5-2-0-0-0-0-2-4-5-5-5-5-2-0-0-0-0---|
E|---------2-3-------------2-3-3-3-3-------------|
PM   X X X         X X X       X X X
 "You    ,    You keep on...'

Then Guitar I joins and repeats [INTRO] while Guitar II repeats [VERSE]

[Chorus]
GUITAR II
e|-----------------------------------------------|
B|-----------------------------------------------|
G|---------7-7-----7-7-7-7-----------------------|
D|-5-5-5-5-7-7-7-7-7-7-7-7-5-5-5-5---------------| X2
A|-5-5-5-5-5-5-7-7-5-5-5-5-5-5-5-5---------------|
E|-3-3-3-3-----5-5---------3-3-3-3---------------|

[Verse]
GUITAR II
e|-----------------------------------------------|
B|-----------------------------------------------|
G|-7-7-7-7-----4-2-2-2-2-4-----------4-2-2-2-2---|
D|-7-7-7-7-4-5-4-2-2-2-2-4-4-5-5-5-5-4-2-2-2-2---| x2
A|-5-5-5-5-4-5-2-0-0-0-0-2-4-5-5-5-5-2-0-0-0-0---|
E|---------2-3-------------2-3-3-3-3-------------|
PM   X X X         X X X       X X X

[Chorus]
GUITAR II
e|-----------------------------------------------|
B|-----------------------------------------------|
G|---------7-7-----7-7-7-7-----------------------|
D|-5-5-5-5-7-7-7-7-7-7-7-7-5-5-5-5---------------| X2
A|-5-5-5-5-5-5-7-7-5-5-5-5-5-5-5-5---------------|
E|-3-3-3-3-----5-5---------3-3-3-3---------------|


e|-----------------------------------------------|
B|-----------------------------------------------|
G|-----------------------------------------------|
D|-5-5-5-5-5-5-5-5-7-----------------------------|
A|-5-5-5-5-5-5-5-5-7-----------------------------|
E|-3-3-3-3-3-3-3-3-5-----------------------------|
PM X X X X X X X X X

[Bridge]
GUITAR II
e|-----------------------------------------------|
B|-----------------------------------------------|
G|-7-------4-------------------------------------|
D|-7---5---4---7---------------------------------| X4
A|-5---5---2---7---------------------------------|
E|-----3-------5---------------------------------|
Vocals come in after 2nd repeat, let each chord ring a full bar.

[POST BRIDGE]
GUITAR II
e|-----------------------------------------------|
B|-----------------------------------------------|
G|-7-7-7-7-----4-2-2-2-2-4-----------4-2-2-2-2---|
D|-7-7-7-7-4-5-4-2-2-2-2-4-4-5-5-5-5-4-2-2-2-2---| x2
A|-5-5-5-5-4-5-2-0-0-0-0-2-4-5-5-5-5-2-0-0-0-0---|
E|---------2-3-------------2-3-3-3-3-------------|
PM   X X X         X X X       X X X
 
[Chorus]
GUITAR II
e|-----------------------------------------------|
B|-----------------------------------------------|
G|---------7-7-----7-7-7-7-----------------------|
D|-5-5-5-5-7-7-7-7-7-7-7-7-5-5-5-5---------------| X2
A|-5-5-5-5-5-5-7-7-5-5-5-5-5-5-5-5---------------|
E|-3-3-3-3-----5-5---------3-3-3-3---------------|

e|-----------------------------------------------|
B|-----------------------------------------------|
G|-----------------------------------------------|
D|-5-5-5-5-5-5-5-5-7-7-7-7-7-7-7-7---------------|
A|-5-5-5-5-5-5-5-5-7-7-7-7-7-7-7-7---------------|
E|-3-3-3-3-3-3-3-3-5-5-5-5-5-5-5-5---------------|
PM X X X X X X X X X X X X X X X X

[Outro]
GUITAR I
e|-----------------7---5---5---5-----------------|
B|-7---5---8---7-------------------8-7-5---5-7-8-|
G|---------------------------------------7-------|
D|---0---0---0---0---0---0---0---0---------------| X2
A|-----------------------------------------------|
E|-----------------------------------------------|

GUITAR II
e|-----------------------------------------------|
B|-----------------------------------------------|
G|-7---------------------------------------------|
D|-7---------------------------------------------| X2
A|-5---------------------------------------------|
E|-----------------------------------------------|
   LET RING

            
            
Suggest correction
Creating personal tab
Creating personal tab
You can edit any tab online and save it as your Personal.

You can edit, replace or remove any tab part or add personal notes – all changes will be seen only by you.

Personal tabs can be accessed anytime from any device, even offline.
Learn more »
comments
print report bad tab
guest
You may want to rate the tab now too:
select rating
Wanna post a correction for this tab? Suggest correction