Oops, an error
Loading. Please wait.

Run Bass Tab

by Coin
46 views 3 this week
no commentswrite comment
1 2 3 4 5
3 more votes to show rating
add to favorites
launch autoscroll
font size
0
reset
guitar tuner
Autoscroll
slow
fast
+/-
esc
set tempo
stop
Help us to improve Ultimate-Guitar.com Take our survey!
×
---------------------------------------------------------------------------------------------
                                   Run-Coin (Bass Tab)
---------------------------------------------------------------------------------------------

Tabbed by:Mark Donohue
Email:mwdonohue97@gmail.com

Tuning:Standard

_____________________________________________________________________________________________



[Intro] (0:12-0:24)

G|----------------------------|---------------------------|
D|----------5-----------------|---------------------------| (Play x2)
A|------6-8---8-6-------------|---------------------------|
E|--8--------------4---4-4-4--|--4---4--6---6--8---8-8-8--|



[Verse 1] (0:37-0:49)

G|-----------------------------------|-----------------------------------|
D|-----------------------------------|-----------------------------------|
A|-----------------------------------|----------------------------8------|
E|--8-8-8-8-6-6-6-6-4-4-4-4-4-4-4-4--|--4-4-4-4-6-6-6-6-8-8-8-8-8---8----|

G|-----------------------------------|------------------------------------|
D|-----------------------------------|------------------------------------|
A|-----------------------------------|------------------------------------|
E|--8-8-8-8-6-6-6-6-4-4-4-4-4-4-4-4--|--4-4-4-4-4-4-4-4-4-4-4-4-4-4/16\4--|



[Chorus] (0:50-1:14)

G|-----------------------------------|------------------------------------------|
D|-----------------------------------|------------------------------------------| 
A|-----------------------------------|------------------------------------------|
E|--4-4-4-4-4-4-4-4-4-4-4-4-4-4-4-4/-|-11-11-11-11-11-11-11-11\6--6--6--6/13\---|

G|-----------------------------------|------------------------------------------|
D|-----------------------------------|------------------------------------------| 
A|-----------------------------------|------------------------------------------|
E|--4-4-4-4-4-4-4-4-4-4-4-4-4-4-4-4/-|-11-11-11-11-11-11-11-11\6-6-6-6-6-6-6-6--|

G|--------------------------|----------------------------|
D|--------------------------|----------------------------|
A|-----------------------6--|-----------------8-6--------|
E|--4---4--4---4---4--4-----|--6---6--6---6-------8-6----|

G|--------------------------|----------------------------|
D|--------------------------|----------------------------|
A|-----------------------6--|----------------------------|
E|--4---4--4---4---4--4-----|--6---6--6---6---6--6-------|



[Bridge] (1:14-1:27)

G|----------------------------|---------------------------|
D|----------5-----------------|---------------------------| (Play x2)
A|------6-8---8-6-------------|---------------------------|
E|--8--------------4---4-4-4--|--4---4--6---6--8---8-8-8--|



[Verse 2] (1:40-1:52)

G|-----------------------------------|-----------------------------------|
D|-----------------------------------|-----------------------------------|
A|-----------------------------------|----------------------------8------|
E|--8-8-8-8-6-6-6-6-4-4-4-4-4-4-4-4--|--4-4-4-4-6-6-6-6-8-8-8-8-8---8----|

G|-----------------------------------|------------------------------------|
D|-----------------------------------|------------------------------------|
A|-----------------------------------|------------------------------------|
E|--8-8-8-8-6-6-6-6-4-4-4-4-4-4-4-4--|--4-4-4-4-4-4-4-4-4-4-4-4-4-4/16\4--|



[Chorus] (1:52-2:17)

G|-----------------------------------|------------------------------------------|
D|-----------------------------------|------------------------------------------| 
A|-----------------------------------|------------------------------------------|
E|--4-4-4-4-4-4-4-4-4-4-4-4-4-4-4-4/-|-11-11-11-11-11-11-11-11\6--6--6--6/13\---|

G|-----------------------------------|------------------------------------------|
D|-----------------------------------|------------------------------------------| 
A|-----------------------------------|------------------------------------------|
E|--4-4-4-4-4-4-4-4-4-4-4-4-4-4-4-4/-|-11-11-11-11-11-11-11-11\6-6-6-6-6-6-6-6--|

G|--------------------------|----------------------------|
D|--------------------------|----------------------------|
A|-----------------------6--|-----------------8-6--------|
E|--4---4--4---4---4--4-----|--6---6--6---6-------8-6----|

G|--------------------------|----------------------------|
D|--------------------------|----------------------------|
A|-----------------------6--|----------------------------|
E|--4---4--4---4---4--4-----|--6---6--6---6---6--6-------|



[Bridge] (2:30-2:44)

G|------------------|------------------|------------------|-----------------------------|
D|------------------|------------------|------------------|-----------------------------|
A|--8--6------------|--8--6------------|--8--6------------|-----------------------------|
E|------------------|------------------|------------------|--8--6------6-6-6-6-6-6-6-6--|

G|-------------------|
D|-------------------|
A|-------------------|
E|--6-6-6-6-6-6-6-6--|



[Chorus] (2:44-3:08)

G|-----------------------------------|------------------------------------------|
D|-----------------------------------|------------------------------------------| 
A|-----------------------------------|------------------------------------------|
E|--4-4-4-4-4-4-4-4-4-4-4-4-4-4-4-4/-|-11-11-11-11-11-11-11-11\6--6--6--6/13\---|

G|-----------------------------------|------------------------------------------|
D|-----------------------------------|------------------------------------------| 
A|-----------------------------------|------------------------------------------|
E|--4-4-4-4-4-4-4-4-4-4-4-4-4-4-4-4/-|-11-11-11-11-11-11-11-11\6-6-6-6-6-6-6-6--|

G|--------------------------|----------------------------|
D|--------------------------|----------------------------|
A|-----------------------6--|-----------------8-6--------|
E|--4---4--4---4---4--4-----|--6---6--6---6-------8-6----|

G|--------------------------|----------------------------|
D|--------------------------|----------------------------|
A|-----------------------6--|----------------------------|
E|--4---4--4---4---4--4-----|--6---6--6---6---6--6-------|



[Outro] (3:09-3:21)

G|----------------------------|---------------------------|
D|----------5-----------------|---------------------------| (Play x2)
A|------6-8---8-6-------------|---------------------------|
E|--8--------------4---4-4-4--|--4---4--6---6--8---8-8-8--|



************************************

| /   Slide up
| \   Slide down

************************************

Suggest correction
Give kudos to tab author, rate the tab!
1 2 3 4 5
comments
print report bad tab
guest
You may want to rate the tab now too:
select rating
Wanna post a correction for this tab? Suggest correction