Oops, an error
Loading. Please wait.

Talk Too Much bass

by Coin
880 views 48 this week
no commentswrite comment
1 2 3 4 5
2 more votes to show rating
add to favorites
×
Save as Personal and add changes to this tab that will be seen only by you. Learn more ›
×
You can save this tab as Personal to edit and correct it or add notes. All changes will be seen only by you. Learn more »
launch autoscroll
font size
0
reset
guitar tuner
edit
Autoscroll
slow
fast
+/-
esc
set tempo
stop
-------------------------------------------------------------------------------
                          Talk Too Much - Coin
-------------------------------------------------------------------------------
Tabbed by: Asa Wentworth. 
Email me: asawentworth@yahoo.com

Tuning: Standard

[Intro]

0:11
G|----------------------------------------------------------------------------|
D|--------------------------------------------6-9-----------------------------|
A|---7-7-x------------------------7-7-x---------------------------------------|
E|---------7-9-9--x-7-7--x-5-5-5--------7-9-9-----5-5\------------------------|

[Verse]

0:29
"...current events..."
G|----------------------------------------------------------------------------|
D|----------------------------------------------------------------------------|
A|-------7-7-x------------------------7-7-x-----------------------------------|
E|---19\-------7-9-9--x-7-7--x-5-5-5--------7-9-9--x-7-7--x-5-5-5\------------|

[Pre-Chorus]

0:39
"...said..."
G|----------------------------------------------------------------------------|
D|----------------------------------------------------------------------------|
A|---7~-----------------------------------------------------------------------|
E|----------------------19\---------------------------------------------------|


[Chorus]

0:48
"...talk too much..."
G|----------------------------------------------------------------------------|
D|------------------------------------------------------7-x-7-7---------------|
A|---7-7----------------------------------------------------------------------|
E|--------7-9-9---7-7--5-5-5-5\4--0-0--7-9-9---7-7--5-5-----------------------|

G|----------------------------------------------------------------------------|
D|----------------------------------------------------4/6-9-6-----------------|
A|---7-7----------------------------------------------------------------------|
E|--------7-9-9---7-7--5-5-5-5\4--0-0--7-9-9---7-7--5-------------------------|

1:07
G|----------------------------------------------------------------------------|
D|----------------------------------------------------------------------------|
A|---7------------------7-----------------------------------------------------|
E|-------7-9---7--5-5-----7-9--7--5-5\----------------------------------------|

[Verse]

1:16
"You know my type..."
G|----------------------------------------------------------------------------|
D|--------------------------------------------/9------------------------------|
A|---7-7-------------------7-7------------------------------------------------|
E|--------7-9-9--7-7--5-5------7-9----7-7-5-5---------------------------------|

G|----------------------------------------------------------------------------|
D|----------------------------------------------------------------------------|
A|---7-7-------------------7-7------------------------------------------------|
E|--------7-9-9--7-7--5-5------7-9---7-7--5-5---------------------------------|

[Pre-Chorus]

1:35
"...said..."
G|----------------------------------------------------------------------------|
D|----------------------------------------------------------------------------|
A|---7~-----------------------------------------------------------------------|
E|----------------------19\---------------------------------------------------|


[Chorus]

1:43
"...talk too much..."
G|----------------------------------------------------------------------------|
D|------------------------------------------------------7-x-7-7---------------|
A|---7-7----------------------------------------------------------------------|
E|--------7-9-9---7-7--5-5-5-5\4--0-0--7-9-9---7-7--5-5-----------------------|

G|----------------------------------------------------------------------------|
D|----------------------------------------------------4/6-9-6-----------------|
A|---7-7----------------------------------------------------------------------|
E|--------7-9-9---7-7--5-5-5-5\4--0-0--7-9-9---7-7--5-------------------------|

[Bridge]

2:15
"No hesitation..."
G|----------------------------------------------------------------------------|
D|-------------------------------------9-9-9-9-9-9-9-9\-----------------------|
A|---2/7-7-7-7-7-7-7-7-7-7-7-7-7-7-7-7----------------------------------------|
E|----------------------------------------------------------------------------|

G|----------------------------------------------------------------------------|
D|----------------------------------------------------------------------------|
A|---7------------------7-----------------------------------------------------| (x2)
E|-------7-9---7--5-5-----7-9--7--5-5\----------------------------------------|

[Chorus]

2:46
"...talk too much..."
G|----------------------------------------------------------------------------|
D|------------------------------------------------------7-x-7-7---------------|
A|---7-7----------------------------------------------------------------------|
E|--------7-9-9---7-7--5-5-5-5\4--0-0--7-9-9---7-7--5-5-----------------------|

G|----------------------------------------------------------------------------|
D|----------------------------------------------------4/6-9-6-----------------|
A|---7-7----------------------------------------------------------------------|
E|--------7-9-9---7-7--5-5-5-5\4--0-0--7-9-9---7-7--5-------------------------|

It's pretty easy for the most part.

Rate & comment!

************************************

| x   Dead note
| /   Slide up
| \   Slide down
| ~   Vibrato

************************************
Suggest correction
Creating personal tab
Creating personal tab
You can edit any tab online and save it as your Personal.

You can edit, replace or remove any tab part or add personal notes – all changes will be seen only by you.

Personal tabs can be accessed anytime from any device, even offline.
Learn more »
Give kudos to tab author, rate the tab!
1 2 3 4 5
comments
print report bad tab
guest
You may want to rate the tab now too:
select rating
Wanna post a correction for this tab? Suggest correction