Oops, an error
Loading. Please wait.

Talk Too Much Tab

version 1
version 1

Whole song

by Coin
610 views 126 this week
no commentswrite comment
1 2 3 4 5
x 3
add to favorites
launch autoscroll
font size
0
reset
how to read this tab
guitar tuner
Autoscroll
slow
fast
+/-
esc
set tempo
stop
Help us to improve Ultimate-Guitar.com Take our survey!
×
Author
Difficulty
intermediate
COIN - Talk Too Much
Tabbed by: Bruno Rodriguez



Standard Tuning



[Intro]

e|--12--12----7--9--9----4-4-4-4---2-2-2-----12-12---7-9-----/16-16-16-16-14-14-14-14------|
B|--12--12----7--9--9----5-5-5-5---2-2-2-----12-12---7-9-----/16-16-16-16-14-14-14-14------|
G|--13--13----8--9--9----4-4-4-4---2-2-2-----13-13---8-9-----/16-16-16-16-14-14-14-14------| x2
D|-----------------------------------------------------------------------------------------|
A|-----------------------------------------------------------------------------------------|
E|-----------------------------------------------------------------------------------------|


[Verse]

e|--12-12---9-9---4-4---2-2------12-12---9-9----------2-2---|
B|--12-12---9-9---5-5---2-2------12-12---9-9----------2-2---|
G|--13-13---9-9---4-4---2-2------13-13---9-9----------2-2---| 
D|----------------------------------------------------------|
A|----------------------------------------------------------|
E|----------------------------------------------------------|

e|--12-12---9-9---4-4---2-2------12-12---9-9----4-4---2-2---------4------------|
B|--12-12---9-9---5-5---2-2------12-12---9-9----5-5---2-2---------5------------|
G|--13-13---9-9---4-4---2-2------13-13---9-9----4-4---2-2---------4--let ring--| 
D|----------------------------------------------------------------6------------|
A|----------------------------------------------------------------4------------|
E|-----------------------------------------------------------------------------|


[Pre-Chorus]

e|--------------------------------------------------------------------|
B|--------------------------------------------------------------------|
G|--------------------------------------------------------------------| 
D|--------------------------------------------------------------------|
A|--7-7-7-7-7-7-7-7-7-7-7-7-7-7-7-7-7-7-7-7-7-7-7-7-7-7-7-7-7-7-7-7---|
E|--------------------------------------------------------------------|


[Chorus]

e|--12--12----7--9--9----4-4-4-4---2-2-2-----12-12---7-9-----/16-16-16-16-14-14-14-14------|
B|--12--12----7--9--9----5-5-5-5---2-2-2-----12-12---7-9-----/16-16-16-16-14-14-14-14------|
G|--13--13----8--9--9----4-4-4-4---2-2-2-----13-13---8-9-----/16-16-16-16-14-14-14-14------| x3
D|-----------------------------------------------------------------------------------------|
A|-----------------------------------------------------------------------------------------|
E|-----------------------------------------------------------------------------------------|



[Solo]

e|--12-9-------------------------------------------------9-12-9-----------|
B|-------12-9---------------------------------------9-12--------12~--12~--|
G|------------11-9-----------------------------9-11-----------------------|
D|-----------------11-9-------------------9-11----------------------------|
A|----------------------11-9---------9-11---------------------------------|
E|---------------------------12-9-12--------------------------------------|

e|--12-9-------------------------------------------------9-12-9-12~--12~--|
B|-------12-9---------------------------------------9-12------------------|
G|------------11-9-----------------------------9-11-----------------------|
D|-----------------11-9-------------------9-11----------------------------|
A|----------------------11-9---------9-11---------------------------------|
E|---------------------------12-9-12--------------------------------------|


************************************

| /  Slide up
| ~  Vibrato
| let ring 

************************************

That's it. Enjoy :)
Suggest correction
Give kudos to tab author, rate the tab!
1 2 3 4 5
comments
print report bad tab
guest
You may want to rate the tab now too:
select rating
Wanna post a correction for this tab? Suggest correction