Oops, an error
Loading. Please wait.

Bendera Tab

version 1
version 1

Whole song

Interactive

35,023 views 141 this week
1 commentread comment
1 2 3 4 5
accurate
x 5
add to favorites
launch autoscroll
font size
0
reset
how to read this tab
guitar tuner
Autoscroll
slow
fast
+/-
esc
set tempo
stop
Help us to improve Ultimate-Guitar.com Take our survey!
×
Judul  Bendera
Artis  Coklat
Album  Rasa baru plus

Tabbed by sigit aribowo
E-Mail newborn_flea@yahoo.com

Buat yang mau ngasih kritik and saran, email aja ke alamat di atas, 

Int:

    A                        D
|----------------------------------------|                            
|----------------------------------------|                         
|---666--------------------6666----777---|------------à diulang 2x 
|---777---6h7--diulang-3X--7777----777---|
|---777--------------------7777----555---|
|---555--------------------5555----xxx---| 

 Gitar 1
|---------------5~--5------------------5~--|
|---5-----5--7---------7--5-----5--77------|
|------6---------------------6-------------|----à diulang-ulang
|------------------------------------------|
|------------------------------------------|
|------------------------------------------| 
 |                           |
 |Gitar 2                    |
 |   A   B     C#      B     |
|-----------------------------|
|-----------------------------|
|-----------------------------| 
|-----------------------------|--à 2X
|--77X79-9-X9-1111X11-9-X9----|
|--55X57-7-X7-9-9-X9--7-X7----| 

Verse:

A                        B
Biar saja ku tak sehebat matahari
 D                        A                   E  G# A
Tapi s’lalu ku coba slalu tuk menghangatkanmu

(Tambahkan fill)

A                        B
Biar saja ku tak setegar batu karang        
 D                      A           E5
Tapi s’lalu ku coba tuk melundungimu
  
Int:

Gitar 1
|---------------5~--5------------------5~--|                     2|--9-10--|
|---5-----5--7---------7--5-----5--77------|                     3|--------|
|------6---------------------6-------------|----à diulang-ulang
|------------------------------------------|
|------------------------------------------|
|------------------------------------------| 
 |                           |
 |Gitar 2                    |
 |   A   B     C#      B     |
|-------------------------------|
|-------------------------------|
|-------------------------------| 
|-------------------------------| 
|--77X79-9-X9-1111X11-9-X9--67--|
|--55X57-7-X7-9-9-X9--7-X7--45--| 

Verse: (fill)

A                       B           
Biar saja ku tak seharum bunga mawar
 D                      A            E  G# A
Tapi s’lalu ku coba tuk mengharumkanmu
A                        B
Biar saja ku tak seelok langit sore
 D                      A            E5
Tapi s’lalu ku coba tuk mengingatkamu

Chours:

Kuperta...hankan kau demi kehormatan bangsa
|-------------------------|             
|-------------------------|             
|-------------------------|--àgitar 1             
|-----------------9---7---|             
|---4----7-----7----------|             
|---2----4-----5----------|             
                 |      |
               |-----------------|
               |-----------------|
               |--12--10---7-----|  ---àgitar 2   
               |---------------9-|
               |-----------------|
               |-----------------| 

Kuperta...hankan kau demi tumpah darah, s’mua pahlawan-pahlawanku....

|-------------------------------|
|-------------------------------|
|-------------------------------|--àgitar 1 
|-----------------7--9-999999---|
|--4----7----7----5--7-777777---|
|--2----4----5----X-------------| 
   |           |
|-------------------|
|-------------------|
|-------------------| ---àgitar 2
|---\gunakan-pick---|
|---\gunakan-pick---|
|-------------------| 

Reff

 A           E5            F#      E5 
Merah-putih teruslah kau berkibar
  D            C#          Bm            E5   
Di ujung tiang tertinggi, di Indonesiaku ini

 A            E5           F#     E5
Merah-putih teruslah kau berkibar
  D            C#          Bm            E5   
Di ujung tiang tertinggi, di Indonesiaku ini


 F#          G#            A
Merah-putih teruslah kau berkibar
 D             E             D
Ku akan slalu menjagamu.....

Solo:

|---------------------------|
|---------------------------|
|---------------------------| ----à4x
|---131313111111999888------|
|---------------------9999--|
|---------------------------| 

    A                        D
|----------------------------------------|
|----------------------------------------|
|---666--------------------6666----777---|
|---777-—-6h7—-diulang-3X--7777----777---|
|---777--------------------7777----555---|
|---555--------------------5555----xxx---| 


Verse: (fill)

A                       B                          
Biar saja ku tak seharum bunga mawar
 D                      A            E5 
Tapi s’lalu ku coba tuk mengharumkanmu
A                       B                          
Biar saja ku tak seelok langit sore
 D                      A           E5  
Tapi s’lalu ku coba tuk mengingatkamu

Chours:

Kuperta...hankan kau demi kehormatan bangsa

|-------------------------|             
|-------------------------|             
|-------------------------|--àgitar 1             
|-----------------9---7---|             
|---4----7-----7----------|             
|---2----4-----5----------|             
                 |      |
               |-----------------|
               |-----------------|
               |--12--10---7-----|  ---àgitar 2   
               |---------------9-|
               |-----------------|
               |-----------------| 

Kuperta...hankan kau demi tumpah darah, s’mua pahlawan-pahlawanku....

|-------------------------------|
|-------------------------------|
|-------------------------------| 
|----------------7---9-999999---|
|--4----7----7---5---7-777777---|
|--2----4----5---X--------------| 

Reff

 A5          E5            F#      E5 
Merah-putih teruslah kau berkibar
  D            C#          Bm            E5   
Di ujung tiang tertinggi, di Indonesiku ini
 A5           E5           F#     E5
Merah-putih teruslah kau berkibar
  D            C#          Bm            E5   
Di ujung tiang tertinggi, di Indonesiku ini

 F#           G#           A
Merah-putih teruslah kau berkibar
 D             E            F#`  G#`  
Ku akan slalu menjagamu.....
D           E  D 
Ho........oooo

Fill: (mutt)distortion

|---------------------------------------|
|---------------------------------------|
|----------------------------------4----|
|----4-6---4-6-4-6-diulang-ulang-----6--|
|--5-----5------------------------------| 
|---------------------------------------| 


Key tab~

h     = pull-on
/     = slide-down
\     = slide-up
~     = vibrato

---------------------------------Index---------------------------------------

  A   A5  E   E5   F#`    G#`
|-5-------7---0----x-----x---|             
|-7---0---9---2----9-----11--|             
|-7---2---9---2----11----13--|           
|-----2----------------------|            
|----------------------------|
|----------------------------|

Copyright (c) 2003 by newborn_flea@yahoo.com

-end of tab-

------------------------------GOOD LUCK--------------------------------------
Suggest correction
comments
print report bad tab
1 comment total.
0 reply
Thunderblitz 10 wrote on May 24 2008, 01:08 am

gile men, lu gaul bisa nulis tab nya!
tapi mnurut gw yg ini :
|---------------------------------------|
|---------------------------------------|
|----------------------------------4----|
|----4-6---4-6-4-6-diulang-ulang-----6--|
|--5-----5------------------------------|
|---------------------------------------|
mute all

harusnya gini:
|---------------------------------------|
|---------------------------------------|
|---------------------------------------|
|--0-4-6-0-4-6-4-6-diulang-ulang---7-5--|
|---------------------------------------|
|---------------------------------------|
mute all

anyway, keep rock on!

guest
You may want to rate the tab now too:
select rating
Please do not post tabs as comments. Select "correction" instead!