Oops, an error
Loading. Please wait.

Karma Tab

version 1
version 1

Whole song

Interactive

13,338 views 12 this week
no commentswrite comment
1 2 3 4 5
1 last vote to show rating
add to favorites
launch autoscroll
font size
0
reset
how to read this tab
guitar tuner
Autoscroll
slow
fast
+/-
esc
set tempo
stop
Help us to improve Ultimate-Guitar.com Take our survey!
×
Difficulty
intermediate
Int : E 

  
   E                    
|-----------------------------------------------------------------|
|--9--9--9--9--9---7--7--7--7--7---5--5--5--5--5---4--4--4--4--4--|
|--8--8--8--8--8---8--8--8--8--8---4--4--4--4--4---4--4--4--4--4--| 2x
|-----------------------------------------------------------------|
|-----------------------------------------------------------------|
|-----------------------------------------------------------------|

     G#m
|-----------------------------------------------------------------|
|-----------------------------------------------------------------|
|-----------------------------------------------------------------| 2x
|-----------------------------------------------------------------|
|----4/6--6--6--6---4/6--6--6--6---4/6--6--6--6---4/6--6--6--6----|
|----2/4--4--4--4---2/4--4--4--4---2/4--4--4--4---2/4--4--4--4----|



Verse 1( guitar play same as intro)
  E
  Sekian lama kita bersama

  Ternyata kau juga
  G#m
  Sama saja
  E
  Kau kira kupercaya semua
  
  S'gala tipu daya
  G#m
  Oh percuma


(*)

    F#m               B                F#m            B
|---5---4------------------------------5--4----------------------|
|-----------7---5-----4----------------------7--5-----4~~--------|
|------------------------6--4~~----------------------------------|
|----------------------------------------------------------------|
|----------------------------------------------------------------|
|----------------------------------------------------------------|
        Kau  buat sempurna..       Awalnya  berakhir bencana....  


Reff:
         E
 Selamat tinggal sayang...
 F#m  G#m
 Bila umurku panjang 

 Kelak ku 'kan datang
     C#m      B
 Tuk buktikan satu balas 'kan kau jelang
           E
 Jangan menangis sayang
 F#m  G#m 
 Ku ingin kau rasakan pahitnya terbuang
  C#m        B
 Sia-sia, memang kau pantas dapatkan


 Back to : intro


Verse 2 ( guitar play same as intro & verse 2)

 E
 Akhirnya, usai sudah semua
 
 Kudapat tertawa
 G#m
 Bahagia


   F#m               B                F#m            B
|---5---4------------------------------5--4----------------------|
|-----------7---5-----4----------------------7--5-----4~~--------|
|------------------------6--4~~----------------------------------|
|----------------------------------------------------------------|
|----------------------------------------------------------------|
|----------------------------------------------------------------|
  S'lalu    tampak     indah.....     Awalnya berakhir bencana....a..
   
Back to : reff

Solo :

   E   
|------------------------------------------------------------------|
|--9-9-9-9-9--10-10-10-10-10--12-12-12-12-12--12h14p12--10h12p10---|
|------------------------------------------------------------------|
|------------------------------------------------------------------|
|------------------------------------------------------------------|
|------------------------------------------------------------------|

           E
|------------------------------------------------------------------|
|--9h10p9--9-9-9-9-9--10-10-10-10-10--12-12-12-12-12--12h14p12-----|
|------------------------------------------------------------------|
|------------------------------------------------------------------|
|------------------------------------------------------------------|
|------------------------------------------------------------------|

                      G#m
|------------------------------------------------------------------|
|---10h12p10--9h10p9--9/16-16-16-16\--9--9-9-9--9/16--16-16\-------|
|------------------------------------------------------------------|
|------------------------------------------------------------------|
|------------------------------------------------------------------|
|------------------------------------------------------------------|


|---------------------------------------------------------------22-|
|9h10-9--9-9-9--/14--14-14-14-14-14--------------------------------|
|-----------------------------------16-14-14/16--16-16-16-16-16----|
|------------------------------------------------------------------|
|------------------------------------------------------------------|
|------------------------------------------------------------------|


   E   
|------------------------------------------------------------------|
|--9-9-9-9-9--10-10-10-10-10--12-12-12-12-12--12h14p12--10h12p10---|
|------------------------------------------------------------------|
|------------------------------------------------------------------|
|------------------------------------------------------------------|
|------------------------------------------------------------------|

          E   
|------------------------------------------------------------------|
|-9h10p9--9-9-9-9-9--10-10-10-10-10--12-12-12-12-12--14-14-14-14-14|
|------------------------------------------------------------------|
|------------------------------------------------------------------|
|------------------------------------------------------------------|
|------------------------------------------------------------------|

   G#m
|------------------22-22-22-22-22----------------22--22-22-22-22-\-|
|--16-16-16-16-16-----------------16-16-16-16-16-------------------|
|------------------------------------------------------------------|
|------------------------------------------------------------------|
|------------------------------------------------------------------|
|------------------------------------------------------------------|

|---14-12-11-12-11----11-12-11h12p11-11-12-14-12-11----11-12p11----|
|------------------14-------------------------------14-------------|
|------------------------------------------------------------------|
|------------------------------------------------------------------|
|------------------------------------------------------------------|
|------------------------------------------------------------------|

                                 F#m
|-----------------------------------------|
|---14p12---------------------------------|
|-----------14p13-------------------------|
|-------------------16--14--13---14~~-----|
|-----------------------------------------|
|-----------------------------------------|


Back to : (*),C5
        
  
           F#
 Selamat tinggal sayang...
 G#m  A#m
 Bila umurku panjang 

 Kelak ku 'kan datang
     D#m      C#
 Tuk buktikan satu balas 'kan kau jelang
           F#
 Jangan menangis sayang
 G#m  A#m 
 Ku ingin kau rasakan pahitnya terbuang
  D#m        C#
 Sia-sia, memang kau pantas dapatkan 
Suggest correction
Give kudos to tab author, rate the tab!
1 2 3 4 5
comments
print report bad tab
guest
You may want to rate the tab now too:
select rating
Wanna post a correction for this tab? Suggest correction