Oops, an error
Loading. Please wait.

Guitarras Y Tambores tab

17 views 1 this week
no commentswrite comment
1 2 3 4 5
3 more votes to show rating
add to favorites
×
Save as Personal and add changes to this tab that will be seen only by you. Learn more ›
×
You can save this tab as Personal to edit and correct it or add notes. All changes will be seen only by you. Learn more »
launch autoscroll
font size
0
reset
how to read this tab
guitar tuner
edit
Autoscroll
slow
fast
+/-
esc
set tempo
stop
Intro:

    C          G          Dm
E --0-0-1-3----3-3--1-0----1--1-0-------I
B --1----------3---------3-3--------3---I
G --0----------0-----------2----------2-I
D --2----------2-----------0------------I
A --3----------3------------------------I
E --------------------------------------I

   F                    C
E--1--1-0---------------0-0-1-3-0--I
B--1--------2-1-0-------1-------1--I
G--2--------------------0-------0--I
D--3--------------------2-------2--I
A-----------------------3-------3--I
E----------------------------------I

            Am       F
Lo he intentado con dinero
      C
Pero no te importa es
           Am           F
Lo he intentado con pasteles
      C
Pero tú ni te los hueles
    G            F
He tenido otra idea
       G              F
?esta vez si que te enteras?
        C*              Am
Que te quiero y que me opones
       C*         Am
Te lo digo bien altito
       F      G    C
Con guitarras y tambores
       F      G    C
Con guitarras y tambores
      C*        Am
Y lo digo y lo repito
        C*               Am
Que te quiero y que me opones
     F        G     C
Con guitarras y tambores
     F        G     C
Con guitarras y tambores

(esta parte va igual que
Los primeros versos)

Lo intente con ropa nueva
Y tú no te diste cuenta
 Me tarde una gran colmena
y anulaste nuestra cena
Lo are bajo tu ventana
Con generador y banda
        C*              Am
Que te quiero y que me opones
       F     G      C
Con guitarras y tambores
     F        G    C
Con guitarras y tambores

    C        G             Dm
E --0-0-1-3--3--3--1-0------1--1-0-------I
B --1--------3-----------3--3--------3---I
G --0--------0--------------2----------2-I
D --2--------2--------------0------------I
A --3--------3---------------------------I
E ---------------------------------------I

   F
E--1--1-0---------------I
B--1--------2-1-0-------I
G--2--------------------I  X2
D--3--------------------I
A-----------------------I
       C           G
Con guitarras y tambores
       Dm           F
Se expresan mis emociones
        C          G
Con guitarras y tambores
     Dm                      F
Are todas mis canciones para ti

         C*              Am
Que te quiero y que me opones
       F      G     C
Con guitarras y tambores

C*
3
1
0
2
3

Que onda
Pues dejo otra mas
De los cola jet set
Dudas o sugerencias
kyorem_vs@
Suggest correction
Creating personal tab
Creating personal tab
You can edit any tab online and save it as your Personal.

You can edit, replace or remove any tab part or add personal notes – all changes will be seen only by you.

Personal tabs can be accessed anytime from any device, even offline.
Learn more »
Give kudos to tab author, rate the tab!
1 2 3 4 5
comments
print report bad tab
guest
Wanna post a correction for this tab? Suggest correction