Oops, an error
Loading. Please wait.

I Do Bass Tab

1,757 views 3 this week
no commentswrite comment
1 2 3 4 5
1 last vote to show rating
add to favorites
launch autoscroll
font size
0
reset
guitar tuner
Autoscroll
slow
fast
+/-
esc
set tempo
stop
Help us to improve Ultimate-Guitar.com Take our survey!
×
Author
Difficulty
intermediate
Colbie Caillat - I Do
Album: All Of You

Standard Tuning
E-A-D-G

Tabbed by Ivo Meesters / Bassguitarist001

Notes:

Beneath the tabs you might find 1-2-3-4-, that's the beat in 8th notes.
For example: "1-" is equal as 2 8th notes, or 1 quarter note. 
A loose "2" resembles a single 8th note.

\ = slide down
/ = slide up
~ = hold note


Start at 1:06


Verse
||--------|--------|--------|--------||
||--------|--------|--------|--------||
||--------|17\-----|14\-----|--------||  x 2
||17\-----|--------|--------|12/-----||

Pre Chorus
|--------|--------|--------|--------|
|--------|--------|---9----|--------|
|---4----|---2----|------9-|7~      |
|2-----2-|0-----0-|7-------|--------|
 1-2-3-4- 1-2-3-4- 1-2-3-4- 1-2-3-4-   

Chorus
|--------|--------|--------|--------|
|--------|---4--7-|--------|---6--9-|
|---4--7-|5-------|---5--9-|7-------|
|5-------|--------|7-------|--------|
 1-2-3-4- 1-2-3-4- 1-2-3-4- 1-2-3-4-   (<- This is the feel of the song, try to feel it)

|-----------|--------14-|-----------|------------|
|--------14-|12--16-----|----12--16-|14----------|
|12--16-----|-----------|14---------|---------11-|
|-----------|-----------|-----------|---12-14----|
                                     1- 2  3- 4-

|---------|--------|--------|--------|
|---11----|---9----|--------|---6--9-|
|9------9-|7-----7-|---5--9-|7-------|
|---------|--------|7-------|--------|


|--------|--------|--------|--------|
|--------|--------|--------|--------|
|---4----|---4----|---5--9-|7~      |
|2-----2-|0-----0-|7-------|--------|

Bridge

|--------|---------|---------|--------|
|---9----|---------|---11----|---7----|
|------9-|7\-------|-------8-|9-----9-|
|7-------|----0--4-|9--------|--------|

|--------|--------|--------|--------|--------|
|--------|--------|--------|--------|--------|
|---5--9-|7-------|--------|5~     /|17~     |
|7-------|---4--0-|2~  0~  |--------|--------|

Chorus
|--------|--------|--------|--------|
|--------|---4--7-|--------|---6--9-|
|---4--7-|5-------|---5--9-|7-------|
|5-------|--------|7-------|--------|

|-----------|--------14-|-----------|------------|
|--------14-|12--16-----|----12-----|14----------|
|12--16-----|-----------|14------14-|---14-12-11-|
|-----------|-----------|-----------|------------|
                                     1- 2  3- 4-
|---------|---------|---------|---------|
|---11----|---11----|---12----|---14----|
|9------9-|7------7-|---------|7------7-|
|---------|---------|7------7-|---------|

|--------|--------|--------|--------|
|--------|--------|---9----|--------|
|---4----|---4----|------9-|7~      |
|2-----2-|0-----0-|7-------|--------|


I'm very, very sure this is correct.

It's a nice song on bass, but may require some excersice.

Keep on groovin' :)!
Suggest correction
Give kudos to tab author, rate the tab!
1 2 3 4 5
comments
print report bad tab
guest
You may want to rate the tab now too:
select rating
Wanna post a correction for this tab? Suggest correction